ISO-10303-21;
HEADER;
/****************************************************************
 * Generated by software with PDElib inside                    *
 * PDElib Version v51a, created Wed 11/30/2011                  *
 * ITI Transcendata (http://www.transcendata.com/)              *
 ****************************************************************/
FILE_DESCRIPTION((''),'2;1');
FILE_NAME('K:\\Daten\\KOMPONENTEN 2D + 3D\\KOMPONENTEN Step-Files f\S\|r extern\\_ALFATEC_ALFA-Speed Rollen und Profile\\AS-Vulkollan\\ALFATEC_AS 040.3600.stp','2013-10-01T10:24:52',('hipp'),(''),'Autodesk Inventor 2013','Autodesk Inventor 2013','');
FILE_SCHEMA(('CONFIG_CONTROL_DESIGN'));
ENDSEC;
DATA;
#5=APPLICATION_CONTEXT('configuration controlled 3D designs of mechanical parts and assemblies');
#6=APPLICATION_PROTOCOL_DEFINITION('International Standard','ap203_configuration_controlled_3d_design_of_mechanical_parts_and_assemblies_mim_lf',2004,#5);
#7=PRODUCT_CONTEXT('',#5,'mechanical');
#8=PRODUCT('ALFA-Speed AS 040.3800_Konturvereinfachung','ALFA-Speed AS 040.3800_Konturvereinfachung',$,(#7));
#9=PRODUCT_RELATED_PRODUCT_CATEGORY('part',$,(#8));
#10=PRODUCT_DEFINITION_FORMATION('',$,#8);
#11=PRODUCT_DEFINITION_CONTEXT('part definition',#5,'design');
#12=PRODUCT_DEFINITION('',$,#10,#11);
#18=(NAMED_UNIT(*)PLANE_ANGLE_UNIT()SI_UNIT($,.RADIAN.));
#19=DIMENSIONAL_EXPONENTS(0.0,0.0,0.0,0.0,0.0,0.0,0.0);
#20=PLANE_ANGLE_MEASURE_WITH_UNIT(PLANE_ANGLE_MEASURE(0.0174532925),#18);
#24=(CONVERSION_BASED_UNIT('DEGREE',#20)NAMED_UNIT(#19)PLANE_ANGLE_UNIT());
#28=(NAMED_UNIT(*)SI_UNIT($,.STERADIAN.)SOLID_ANGLE_UNIT());
#32=(LENGTH_UNIT()NAMED_UNIT(*)SI_UNIT(.MILLI.,.METRE.));
#34=UNCERTAINTY_MEASURE_WITH_UNIT(LENGTH_MEASURE(0.01),#32,'DISTANCE_ACCURACY_VALUE','');
#36=(GEOMETRIC_REPRESENTATION_CONTEXT(3)GLOBAL_UNCERTAINTY_ASSIGNED_CONTEXT((#34))GLOBAL_UNIT_ASSIGNED_CONTEXT((#24,#28,#32))REPRESENTATION_CONTEXT('None','None'));
#37=AXIS2_PLACEMENT_3D('',#38,#39,#40);
#38=CARTESIAN_POINT('',(0.0,0.0,0.0));
#39=DIRECTION('',(0.0,0.0,1.0));
#40=DIRECTION('',(1.0,0.0,0.0));
#41=SHAPE_REPRESENTATION('',(#37),#36);
#42=PRODUCT_DEFINITION_SHAPE('','',#12);
#43=SHAPE_DEFINITION_REPRESENTATION(#42,#41);
#49=(NAMED_UNIT(*)PLANE_ANGLE_UNIT()SI_UNIT($,.RADIAN.));
#50=DIMENSIONAL_EXPONENTS(0.0,0.0,0.0,0.0,0.0,0.0,0.0);
#51=PLANE_ANGLE_MEASURE_WITH_UNIT(PLANE_ANGLE_MEASURE(0.0174532925),#49);
#55=(CONVERSION_BASED_UNIT('DEGREE',#51)NAMED_UNIT(#50)PLANE_ANGLE_UNIT());
#59=(NAMED_UNIT(*)SI_UNIT($,.STERADIAN.)SOLID_ANGLE_UNIT());
#63=(LENGTH_UNIT()NAMED_UNIT(*)SI_UNIT(.MILLI.,.METRE.));
#65=UNCERTAINTY_MEASURE_WITH_UNIT(LENGTH_MEASURE(0.000001),#63,'DISTANCE_ACCURACY_VALUE','');
#67=(GEOMETRIC_REPRESENTATION_CONTEXT(3)GLOBAL_UNCERTAINTY_ASSIGNED_CONTEXT((#65))GLOBAL_UNIT_ASSIGNED_CONTEXT((#55,#59,#63))REPRESENTATION_CONTEXT('','3D'));
#68=CARTESIAN_POINT('',(26.100000000000009,-1.781956E-015,-1.578412E-015));
#69=DIRECTION('',(-1.0,-1.260287E-016,7.516246E-016));
#70=DIRECTION('',(-6.820823E-016,-0.291957509948764,-0.9564312899443));
#71=AXIS2_PLACEMENT_3D('',#68,#69,#70);
#72=CONICAL_SURFACE('',#71,7.387564434701789,75.000000000000014);
#73=CARTESIAN_POINT('',(26.800000000000011,1.394134734395525,4.567082664213928));
#74=VERTEX_POINT('',#73);
#75=CARTESIAN_POINT('',(26.800000000000004,-1.693736E-015,-2.104549E-015));
#76=DIRECTION('',(-1.0,1.991390E-016,6.523648E-016));
#77=DIRECTION('',(-6.820823E-016,-0.291957509948764,-0.9564312899443));
#78=AXIS2_PLACEMENT_3D('',#75,#76,#77);
#79=CIRCLE('',#78,4.775128869403577);
#80=EDGE_CURVE('',#74,#74,#79,.T.);
#81=ORIENTED_EDGE('',*,*,#80,.T.);
#82=EDGE_LOOP('',(#81));
#83=FACE_OUTER_BOUND('',#82,.T.);
#84=CARTESIAN_POINT('',(25.400000000000013,2.919575099487639,9.564312899442998));
#85=VERTEX_POINT('',#84);
#86=CARTESIAN_POINT('',(25.400000000000009,-1.870176E-015,-1.052274E-015));
#87=DIRECTION('',(1.0,-1.991390E-016,-6.523648E-016));
#88=DIRECTION('',(-6.820823E-016,-0.291957509948764,-0.9564312899443));
#89=AXIS2_PLACEMENT_3D('',#86,#87,#88);
#90=CIRCLE('',#89,9.999999999999998);
#91=EDGE_CURVE('',#85,#85,#90,.T.);
#92=ORIENTED_EDGE('',*,*,#91,.T.);
#93=EDGE_LOOP('',(#92));
#94=FACE_BOUND('',#93,.T.);
#95=ADVANCED_FACE('',(#83,#94),#72,.T.);
#96=CARTESIAN_POINT('',(25.400000000000009,-1.870176E-015,-1.052274E-015));
#97=DIRECTION('',(-1.0,-1.260287E-016,7.516246E-016));
#98=DIRECTION('',(6.820823E-016,0.291957509948764,0.9564312899443));
#99=AXIS2_PLACEMENT_3D('',#96,#97,#98);
#100=CYLINDRICAL_SURFACE('',#99,10.0);
#101=CARTESIAN_POINT('',(24.000000000000018,2.91957509948764,9.564312899443001));
#102=VERTEX_POINT('',#101);
#103=CARTESIAN_POINT('',(24.000000000000004,-2.046616E-015,1.355855E-030));
#104=DIRECTION('',(-1.0,1.991390E-016,6.523648E-016));
#105=DIRECTION('',(6.820823E-016,0.291957509948764,0.9564312899443));
#106=AXIS2_PLACEMENT_3D('',#103,#104,#105);
#107=CIRCLE('',#106,9.999999999999998);
#108=EDGE_CURVE('',#102,#102,#107,.T.);
#109=ORIENTED_EDGE('',*,*,#108,.F.);
#110=EDGE_LOOP('',(#109));
#111=FACE_OUTER_BOUND('',#110,.T.);
#112=ORIENTED_EDGE('',*,*,#91,.F.);
#113=EDGE_LOOP('',(#112));
#114=FACE_BOUND('',#113,.T.);
#115=ADVANCED_FACE('',(#111,#114),#100,.T.);
#116=CARTESIAN_POINT('',(26.800000000000011,1.459787549743819,4.782156449721496));
#117=DIRECTION('',(1.0,0.0,0.0));
#118=DIRECTION('',(0.0,0.9564312899443,-0.291957509948764));
#119=AXIS2_PLACEMENT_3D('',#116,#117,#118);
#120=PLANE('',#119);
#121=ORIENTED_EDGE('',*,*,#80,.F.);
#122=EDGE_LOOP('',(#121));
#123=FACE_OUTER_BOUND('',#122,.T.);
#124=ADVANCED_FACE('',(#123),#120,.T.);
#125=CARTESIAN_POINT('',(11.0,-2.220446E-015,5.204170E-017));
#126=DIRECTION('',(-1.0,2.291660E-016,4.137905E-017));
#127=DIRECTION('',(4.469938E-017,0.014507765398031,0.999894756833516));
#128=AXIS2_PLACEMENT_3D('',#125,#126,#127);
#129=TOROIDAL_SURFACE('',#128,18.0,2.0);
#130=CARTESIAN_POINT('',(11.000000000000005,19.997895136670316,-0.29015530796062));
#131=VERTEX_POINT('',#130);
#132=CARTESIAN_POINT('',(11.0,-2.220446E-015,5.204170E-017));
#133=DIRECTION('',(-1.0,2.285175E-016,-3.315627E-018));
#134=DIRECTION('',(-2.285415E-016,-0.999894756833516,0.014507765398031));
#135=AXIS2_PLACEMENT_3D('',#132,#133,#134);
#136=CIRCLE('',#135,20.000000000000004);
#137=EDGE_CURVE('',#131,#131,#136,.T.);
#138=ORIENTED_EDGE('',*,*,#137,.T.);
#139=EDGE_LOOP('',(#138));
#140=FACE_OUTER_BOUND('',#139,.T.);
#141=CARTESIAN_POINT('',(9.000000000000005,17.998105623003283,-0.261139777164553));
#142=VERTEX_POINT('',#141);
#143=CARTESIAN_POINT('',(9.000000000000002,-2.220446E-015,1.387779E-016));
#144=DIRECTION('',(1.0,-2.285175E-016,3.315627E-018));
#145=DIRECTION('',(-2.285415E-016,-0.999894756833516,0.014507765398031));
#146=AXIS2_PLACEMENT_3D('',#143,#144,#145);
#147=CIRCLE('',#146,18.0);
#148=EDGE_CURVE('',#142,#142,#147,.T.);
#149=ORIENTED_EDGE('',*,*,#148,.T.);
#150=EDGE_LOOP('',(#149));
#151=FACE_BOUND('',#150,.T.);
#152=ADVANCED_FACE('',(#140,#151),#129,.T.);
#153=CARTESIAN_POINT('',(16.500000000000004,-3.330669E-015,-1.734723E-016));
#154=DIRECTION('',(-1.0,2.291660E-016,4.137905E-017));
#155=DIRECTION('',(2.285415E-016,0.999894756833516,-0.014507765398031));
#156=AXIS2_PLACEMENT_3D('',#153,#154,#155);
#157=CYLINDRICAL_SURFACE('',#156,20.000000000000004);
#158=CARTESIAN_POINT('',(22.000000000000007,19.997895136670309,-0.290155307960615));
#159=VERTEX_POINT('',#158);
#160=CARTESIAN_POINT('',(22.0,-5.551115E-015,-3.989864E-016));
#161=DIRECTION('',(1.0,-2.285175E-016,3.315627E-018));
#162=DIRECTION('',(-2.285415E-016,-0.999894756833516,0.014507765398031));
#163=AXIS2_PLACEMENT_3D('',#160,#161,#162);
#164=CIRCLE('',#163,20.000000000000004);
#165=EDGE_CURVE('',#159,#159,#164,.T.);
#166=ORIENTED_EDGE('',*,*,#165,.F.);
#167=EDGE_LOOP('',(#166));
#168=FACE_OUTER_BOUND('',#167,.T.);
#169=ORIENTED_EDGE('',*,*,#137,.F.);
#170=EDGE_LOOP('',(#169));
#171=FACE_BOUND('',#170,.T.);
#172=ADVANCED_FACE('',(#168,#171),#157,.T.);
#173=CARTESIAN_POINT('',(22.0,-5.551115E-015,-3.989864E-016));
#174=DIRECTION('',(-1.0,2.291660E-016,4.137905E-017));
#175=DIRECTION('',(4.469938E-017,0.014507765398031,0.999894756833516));
#176=AXIS2_PLACEMENT_3D('',#173,#174,#175);
#177=TOROIDAL_SURFACE('',#176,18.0,2.0);
#178=CARTESIAN_POINT('',(24.000000000000007,17.99810562300328,-0.261139777164558));
#179=VERTEX_POINT('',#178);
#180=CARTESIAN_POINT('',(24.000000000000004,-5.551115E-015,-4.857226E-016));
#181=DIRECTION('',(-1.0,2.285175E-016,-3.315627E-018));
#182=DIRECTION('',(-2.285415E-016,-0.999894756833516,0.014507765398031));
#183=AXIS2_PLACEMENT_3D('',#180,#181,#182);
#184=CIRCLE('',#183,18.0);
#185=EDGE_CURVE('',#179,#179,#184,.T.);
#186=ORIENTED_EDGE('',*,*,#185,.T.);
#187=EDGE_LOOP('',(#186));
#188=FACE_OUTER_BOUND('',#187,.T.);
#189=ORIENTED_EDGE('',*,*,#165,.T.);
#190=EDGE_LOOP('',(#189));
#191=FACE_BOUND('',#190,.T.);
#192=ADVANCED_FACE('',(#188,#191),#177,.T.);
#193=CARTESIAN_POINT('',(9.000000000000005,12.998631838835708,-0.188600950174403));
#194=DIRECTION('',(-1.0,0.0,0.0));
#195=DIRECTION('',(0.0,0.014507765398031,0.999894756833516));
#196=AXIS2_PLACEMENT_3D('',#193,#194,#195);
#197=PLANE('',#196);
#198=ORIENTED_EDGE('',*,*,#148,.F.);
#199=EDGE_LOOP('',(#198));
#200=FACE_OUTER_BOUND('',#199,.T.);
#201=CARTESIAN_POINT('',(9.000000000000007,-6.999999999999991,8.572528E-016));
#202=VERTEX_POINT('',#201);
#203=CARTESIAN_POINT('',(9.000000000000007,5.204170E-016,0.0));
#204=DIRECTION('',(-1.0,0.0,0.0));
#205=DIRECTION('',(0.0,1.0,0.0));
#206=AXIS2_PLACEMENT_3D('',#203,#204,#205);
#207=CIRCLE('',#206,6.999999999999991);
#208=EDGE_CURVE('',#202,#202,#207,.T.);
#209=ORIENTED_EDGE('',*,*,#208,.F.);
#210=EDGE_LOOP('',(#209));
#211=FACE_BOUND('',#210,.T.);
#212=ADVANCED_FACE('',(#200,#211),#197,.T.);
#213=CARTESIAN_POINT('',(-1.110223E-015,4.999999999999999,0.0));
#214=DIRECTION('',(-1.0,0.0,0.0));
#215=DIRECTION('',(0.0,0.0,1.0));
#216=AXIS2_PLACEMENT_3D('',#213,#214,#215);
#217=PLANE('',#216);
#218=CARTESIAN_POINT('',(-1.295260E-015,7.999999999999999,9.796851E-016));
#219=VERTEX_POINT('',#218);
#220=CARTESIAN_POINT('',(-8.326673E-016,-1.540744E-032,0.0));
#221=DIRECTION('',(1.0,0.0,0.0));
#222=DIRECTION('',(0.0,-1.0,0.0));
#223=AXIS2_PLACEMENT_3D('',#220,#221,#222);
#224=CIRCLE('',#223,7.999999999999999);
#225=EDGE_CURVE('',#219,#219,#224,.T.);
#226=ORIENTED_EDGE('',*,*,#225,.F.);
#227=EDGE_LOOP('',(#226));
#228=FACE_OUTER_BOUND('',#227,.T.);
#229=ADVANCED_FACE('',(#228),#217,.T.);
#230=CARTESIAN_POINT('',(24.000000000000004,2.5,0.0));
#231=DIRECTION('',(1.0,0.0,0.0));
#232=DIRECTION('',(0.0,0.0,-1.0));
#233=AXIS2_PLACEMENT_3D('',#230,#231,#232);
#234=PLANE('',#233);
#235=ORIENTED_EDGE('',*,*,#185,.F.);
#236=EDGE_LOOP('',(#235));
#237=FACE_OUTER_BOUND('',#236,.T.);
#238=ORIENTED_EDGE('',*,*,#108,.T.);
#239=EDGE_LOOP('',(#238));
#240=FACE_BOUND('',#239,.T.);
#241=ADVANCED_FACE('',(#237,#240),#234,.T.);
#242=CARTESIAN_POINT('',(0.999999999999999,5.782412E-017,0.0));
#243=DIRECTION('',(1.0,5.782412E-017,0.0));
#244=DIRECTION('',(0.0,-1.0,0.0));
#245=AXIS2_PLACEMENT_3D('',#242,#243,#244);
#246=CONICAL_SURFACE('',#245,9.0,44.999999999999993);
#247=ORIENTED_EDGE('',*,*,#225,.T.);
#248=EDGE_LOOP('',(#247));
#249=FACE_OUTER_BOUND('',#248,.T.);
#250=CARTESIAN_POINT('',(2.0,10.0,-1.224606E-015));
#251=VERTEX_POINT('',#250);
#252=CARTESIAN_POINT('',(2.0,1.156482E-016,0.0));
#253=DIRECTION('',(-1.0,0.0,0.0));
#254=DIRECTION('',(0.0,-1.0,0.0));
#255=AXIS2_PLACEMENT_3D('',#252,#253,#254);
#256=CIRCLE('',#255,10.0);
#257=EDGE_CURVE('',#251,#251,#256,.T.);
#258=ORIENTED_EDGE('',*,*,#257,.T.);
#259=EDGE_LOOP('',(#258));
#260=FACE_BOUND('',#259,.T.);
#261=ADVANCED_FACE('',(#249,#260),#246,.T.);
#262=CARTESIAN_POINT('',(1.399999999999997,8.095376E-017,0.0));
#263=DIRECTION('',(1.0,5.782412E-017,0.0));
#264=DIRECTION('',(0.0,1.0,0.0));
#265=AXIS2_PLACEMENT_3D('',#262,#263,#264);
#266=CYLINDRICAL_SURFACE('',#265,10.0);
#267=CARTESIAN_POINT('',(2.799999999999997,10.0,0.0));
#268=VERTEX_POINT('',#267);
#269=CARTESIAN_POINT('',(2.799999999999998,1.619075E-016,0.0));
#270=DIRECTION('',(1.0,0.0,0.0));
#271=DIRECTION('',(0.0,1.0,0.0));
#272=AXIS2_PLACEMENT_3D('',#269,#270,#271);
#273=CIRCLE('',#272,10.0);
#274=EDGE_CURVE('',#268,#268,#273,.T.);
#275=ORIENTED_EDGE('',*,*,#274,.F.);
#276=EDGE_LOOP('',(#275));
#277=FACE_OUTER_BOUND('',#276,.T.);
#278=ORIENTED_EDGE('',*,*,#257,.F.);
#279=EDGE_LOOP('',(#278));
#280=FACE_BOUND('',#279,.T.);
#281=ADVANCED_FACE('',(#277,#280),#266,.T.);
#282=CARTESIAN_POINT('',(2.799999999999996,11.25,0.0));
#283=DIRECTION('',(-1.0,0.0,0.0));
#284=DIRECTION('',(0.0,0.0,1.0));
#285=AXIS2_PLACEMENT_3D('',#282,#283,#284);
#286=PLANE('',#285);
#287=CARTESIAN_POINT('',(2.799999999999996,12.5,0.0));
#288=VERTEX_POINT('',#287);
#289=CARTESIAN_POINT('',(2.799999999999994,1.619075E-016,0.0));
#290=DIRECTION('',(1.0,0.0,0.0));
#291=DIRECTION('',(0.0,1.0,0.0));
#292=AXIS2_PLACEMENT_3D('',#289,#290,#291);
#293=CIRCLE('',#292,12.5);
#294=EDGE_CURVE('',#288,#288,#293,.T.);
#295=ORIENTED_EDGE('',*,*,#294,.F.);
#296=EDGE_LOOP('',(#295));
#297=FACE_OUTER_BOUND('',#296,.T.);
#298=ORIENTED_EDGE('',*,*,#274,.T.);
#299=EDGE_LOOP('',(#298));
#300=FACE_BOUND('',#299,.T.);
#301=ADVANCED_FACE('',(#297,#300),#286,.T.);
#302=CARTESIAN_POINT('',(5.399999999999996,3.122502E-016,0.0));
#303=DIRECTION('',(1.0,5.782412E-017,0.0));
#304=DIRECTION('',(0.0,1.0,0.0));
#305=AXIS2_PLACEMENT_3D('',#302,#303,#304);
#306=CYLINDRICAL_SURFACE('',#305,12.5);
#307=CARTESIAN_POINT('',(7.999999999999996,12.5,0.0));
#308=VERTEX_POINT('',#307);
#309=CARTESIAN_POINT('',(7.999999999999996,4.625929E-016,0.0));
#310=DIRECTION('',(1.0,0.0,0.0));
#311=DIRECTION('',(0.0,1.0,0.0));
#312=AXIS2_PLACEMENT_3D('',#309,#310,#311);
#313=CIRCLE('',#312,12.5);
#314=EDGE_CURVE('',#308,#308,#313,.T.);
#315=ORIENTED_EDGE('',*,*,#314,.F.);
#316=EDGE_LOOP('',(#315));
#317=FACE_OUTER_BOUND('',#316,.T.);
#318=ORIENTED_EDGE('',*,*,#294,.T.);
#319=EDGE_LOOP('',(#318));
#320=FACE_BOUND('',#319,.T.);
#321=ADVANCED_FACE('',(#317,#320),#306,.T.);
#322=CARTESIAN_POINT('',(7.999999999999995,9.749999999999995,0.0));
#323=DIRECTION('',(1.0,0.0,0.0));
#324=DIRECTION('',(0.0,0.0,-1.0));
#325=AXIS2_PLACEMENT_3D('',#322,#323,#324);
#326=PLANE('',#325);
#327=ORIENTED_EDGE('',*,*,#314,.T.);
#328=EDGE_LOOP('',(#327));
#329=FACE_OUTER_BOUND('',#328,.T.);
#330=CARTESIAN_POINT('',(7.999999999999994,6.999999999999991,0.0));
#331=VERTEX_POINT('',#330);
#332=CARTESIAN_POINT('',(7.999999999999994,4.625929E-016,0.0));
#333=DIRECTION('',(1.0,0.0,0.0));
#334=DIRECTION('',(0.0,1.0,0.0));
#335=AXIS2_PLACEMENT_3D('',#332,#333,#334);
#336=CIRCLE('',#335,6.999999999999991);
#337=EDGE_CURVE('',#331,#331,#336,.T.);
#338=ORIENTED_EDGE('',*,*,#337,.F.);
#339=EDGE_LOOP('',(#338));
#340=FACE_BOUND('',#339,.T.);
#341=ADVANCED_FACE('',(#329,#340),#326,.T.);
#342=CARTESIAN_POINT('',(10.249999999999995,5.926972E-016,0.0));
#343=DIRECTION('',(1.0,5.782412E-017,0.0));
#344=DIRECTION('',(0.0,1.0,0.0));
#345=AXIS2_PLACEMENT_3D('',#342,#343,#344);
#346=CYLINDRICAL_SURFACE('',#345,6.999999999999991);
#347=ORIENTED_EDGE('',*,*,#208,.T.);
#348=EDGE_LOOP('',(#347));
#349=FACE_OUTER_BOUND('',#348,.T.);
#350=ORIENTED_EDGE('',*,*,#337,.T.);
#351=EDGE_LOOP('',(#350));
#352=FACE_BOUND('',#351,.T.);
#353=ADVANCED_FACE('',(#349,#352),#346,.T.);
#354=CLOSED_SHELL('',(#95,#115,#124,#152,#172,#192,#212,#229,#241,#261,#281,#301,#321,#341,#353));
#355=MANIFOLD_SOLID_BREP('Volumenk\S\vrper1',#354);
#356=COLOUR_RGB('',0.5,0.5,0.5);
#357=FILL_AREA_STYLE_COLOUR('',#356);
#358=FILL_AREA_STYLE('',(#357));
#359=SURFACE_STYLE_FILL_AREA(#358);
#360=SURFACE_SIDE_STYLE('',(#359));
#361=SURFACE_STYLE_USAGE(.BOTH.,#360);
#362=PRESENTATION_STYLE_ASSIGNMENT((#361));
#363=STYLED_ITEM('',(#362),#95);
#364=STYLED_ITEM('',(#362),#115);
#365=STYLED_ITEM('',(#362),#124);
#366=COLOUR_RGB('',0.829999983310699,0.759999990463257,0.600000023841858);
#367=FILL_AREA_STYLE_COLOUR('',#366);
#368=FILL_AREA_STYLE('',(#367));
#369=SURFACE_STYLE_FILL_AREA(#368);
#370=SURFACE_SIDE_STYLE('',(#369));
#371=SURFACE_STYLE_USAGE(.BOTH.,#370);
#372=PRESENTATION_STYLE_ASSIGNMENT((#371));
#373=STYLED_ITEM('',(#372),#152);
#374=STYLED_ITEM('',(#372),#172);
#375=STYLED_ITEM('',(#372),#192);
#376=COLOUR_RGB('',0.878431379795074,0.874509811401367,0.858823537826538);
#377=FILL_AREA_STYLE_COLOUR('',#376);
#378=FILL_AREA_STYLE('',(#377));
#379=SURFACE_STYLE_FILL_AREA(#378);
#380=SURFACE_SIDE_STYLE('',(#379));
#381=SURFACE_STYLE_USAGE(.BOTH.,#380);
#382=PRESENTATION_STYLE_ASSIGNMENT((#381));
#383=STYLED_ITEM('',(#382),#212);
#384=STYLED_ITEM('',(#382),#229);
#385=STYLED_ITEM('',(#382),#241);
#386=STYLED_ITEM('',(#382),#261);
#387=STYLED_ITEM('',(#382),#281);
#388=STYLED_ITEM('',(#382),#301);
#389=STYLED_ITEM('',(#382),#321);
#390=STYLED_ITEM('',(#382),#341);
#391=STYLED_ITEM('',(#382),#353);
#392=MECHANICAL_DESIGN_GEOMETRIC_PRESENTATION_REPRESENTATION('',(#363,#364,#365,#373,#374,#375,#383,#384,#385,#386,#387,#388,#389,#390,#391,#400),#67);
#393=COLOUR_RGB('Stahl',0.878431379795074,0.874509811401367,0.858823537826538);
#394=FILL_AREA_STYLE_COLOUR('Stahl',#393);
#395=FILL_AREA_STYLE('Stahl',(#394));
#396=SURFACE_STYLE_FILL_AREA(#395);
#397=SURFACE_SIDE_STYLE('Stahl',(#396));
#398=SURFACE_STYLE_USAGE(.BOTH.,#397);
#399=PRESENTATION_STYLE_ASSIGNMENT((#398));
#400=STYLED_ITEM('',(#399),#355);
#401=ADVANCED_BREP_SHAPE_REPRESENTATION('ABSR',(#355),#36);
#402=SHAPE_REPRESENTATION_RELATIONSHIP('SRR','None',#401,#41);
ENDSEC;
END-ISO-10303-21;
