ISO-10303-21;
HEADER;
/****************************************************************
 * Generated by software with PDElib inside                    *
 * PDElib Version v51a, created Wed 11/30/2011                  *
 * ITI Transcendata (http://www.transcendata.com/)              *
 ****************************************************************/
FILE_DESCRIPTION((''),'2;1');
FILE_NAME('K:\\Daten\\KOMPONENTEN 2D + 3D\\KOMPONENTEN Step-Files f\S\|r extern\\_ALFATEC_ALFA-Speed Rollen und Profile\\PAS-Polyamid\\ALFATEC_PAS 060.0360.stp','2013-10-01T12:06:29',('hipp'),(''),'Autodesk Inventor 2013','Autodesk Inventor 2013','');
FILE_SCHEMA(('CONFIG_CONTROL_DESIGN'));
ENDSEC;
DATA;
#5=APPLICATION_CONTEXT('configuration controlled 3D designs of mechanical parts and assemblies');
#6=APPLICATION_PROTOCOL_DEFINITION('International Standard','ap203_configuration_controlled_3d_design_of_mechanical_parts_and_assemblies_mim_lf',2004,#5);
#7=PRODUCT_CONTEXT('',#5,'mechanical');
#8=PRODUCT('ALFATEC_PAS 060','ALFATEC_PAS 060',$,(#7));
#9=PRODUCT_RELATED_PRODUCT_CATEGORY('part',$,(#8));
#10=PRODUCT_DEFINITION_FORMATION('',$,#8);
#11=PRODUCT_DEFINITION_CONTEXT('part definition',#5,'design');
#12=PRODUCT_DEFINITION('',$,#10,#11);
#18=(NAMED_UNIT(*)PLANE_ANGLE_UNIT()SI_UNIT($,.RADIAN.));
#19=DIMENSIONAL_EXPONENTS(0.0,0.0,0.0,0.0,0.0,0.0,0.0);
#20=PLANE_ANGLE_MEASURE_WITH_UNIT(PLANE_ANGLE_MEASURE(0.0174532925),#18);
#24=(CONVERSION_BASED_UNIT('DEGREE',#20)NAMED_UNIT(#19)PLANE_ANGLE_UNIT());
#28=(NAMED_UNIT(*)SI_UNIT($,.STERADIAN.)SOLID_ANGLE_UNIT());
#32=(LENGTH_UNIT()NAMED_UNIT(*)SI_UNIT(.MILLI.,.METRE.));
#34=UNCERTAINTY_MEASURE_WITH_UNIT(LENGTH_MEASURE(0.01),#32,'DISTANCE_ACCURACY_VALUE','');
#36=(GEOMETRIC_REPRESENTATION_CONTEXT(3)GLOBAL_UNCERTAINTY_ASSIGNED_CONTEXT((#34))GLOBAL_UNIT_ASSIGNED_CONTEXT((#24,#28,#32))REPRESENTATION_CONTEXT('None','None'));
#37=AXIS2_PLACEMENT_3D('',#38,#39,#40);
#38=CARTESIAN_POINT('',(0.0,0.0,0.0));
#39=DIRECTION('',(0.0,0.0,1.0));
#40=DIRECTION('',(1.0,0.0,0.0));
#41=SHAPE_REPRESENTATION('',(#37),#36);
#42=PRODUCT_DEFINITION_SHAPE('','',#12);
#43=SHAPE_DEFINITION_REPRESENTATION(#42,#41);
#49=(NAMED_UNIT(*)PLANE_ANGLE_UNIT()SI_UNIT($,.RADIAN.));
#50=DIMENSIONAL_EXPONENTS(0.0,0.0,0.0,0.0,0.0,0.0,0.0);
#51=PLANE_ANGLE_MEASURE_WITH_UNIT(PLANE_ANGLE_MEASURE(0.0174532925),#49);
#55=(CONVERSION_BASED_UNIT('DEGREE',#51)NAMED_UNIT(#50)PLANE_ANGLE_UNIT());
#59=(NAMED_UNIT(*)SI_UNIT($,.STERADIAN.)SOLID_ANGLE_UNIT());
#63=(LENGTH_UNIT()NAMED_UNIT(*)SI_UNIT(.MILLI.,.METRE.));
#65=UNCERTAINTY_MEASURE_WITH_UNIT(LENGTH_MEASURE(0.000001),#63,'DISTANCE_ACCURACY_VALUE','');
#67=(GEOMETRIC_REPRESENTATION_CONTEXT(3)GLOBAL_UNCERTAINTY_ASSIGNED_CONTEXT((#65))GLOBAL_UNIT_ASSIGNED_CONTEXT((#55,#59,#63))REPRESENTATION_CONTEXT('','3D'));
#68=CARTESIAN_POINT('',(36.049999999999997,-9.992007E-015,9.992007E-015));
#69=DIRECTION('',(-1.0,0.0,0.0));
#70=DIRECTION('',(0.0,-0.994855851830842,-0.101300711142272));
#71=AXIS2_PLACEMENT_3D('',#68,#69,#70);
#72=CYLINDRICAL_SURFACE('',#71,20.0);
#73=CARTESIAN_POINT('',(37.100000000000001,-19.897117036616848,-2.026014222845432));
#74=VERTEX_POINT('',#73);
#75=CARTESIAN_POINT('',(37.100000000000001,-9.992007E-015,9.992007E-015));
#76=DIRECTION('',(1.0,0.0,0.0));
#77=DIRECTION('',(0.0,0.994855851830842,0.101300711142272));
#78=AXIS2_PLACEMENT_3D('',#75,#76,#77);
#79=CIRCLE('',#78,20.0);
#80=EDGE_CURVE('',#74,#74,#79,.T.);
#81=ORIENTED_EDGE('',*,*,#80,.F.);
#82=EDGE_LOOP('',(#81));
#83=FACE_OUTER_BOUND('',#82,.T.);
#84=CARTESIAN_POINT('',(34.300000000000011,19.89711703661683,2.026014222845447));
#85=VERTEX_POINT('',#84);
#86=CARTESIAN_POINT('',(34.300000000000011,-9.992007E-015,9.992007E-015));
#87=DIRECTION('',(-1.0,0.0,0.0));
#88=DIRECTION('',(0.0,-0.994855851830842,-0.101300711142272));
#89=AXIS2_PLACEMENT_3D('',#86,#87,#88);
#90=CIRCLE('',#89,20.0);
#91=EDGE_CURVE('',#85,#85,#90,.T.);
#92=ORIENTED_EDGE('',*,*,#91,.F.);
#93=EDGE_LOOP('',(#92));
#94=FACE_BOUND('',#93,.T.);
#95=ADVANCED_FACE('',(#83,#94),#72,.T.);
#96=CARTESIAN_POINT('',(37.950000000000003,-9.992007E-015,9.992007E-015));
#97=DIRECTION('',(-1.0,0.0,0.0));
#98=DIRECTION('',(0.0,0.994855851830842,0.101300711142272));
#99=AXIS2_PLACEMENT_3D('',#96,#97,#98);
#100=CONICAL_SURFACE('',#99,16.827756813566459,75.000000000000043);
#101=CARTESIAN_POINT('',(38.799999999999997,-13.585267641709002,-1.383313241441539));
#102=VERTEX_POINT('',#101);
#103=CARTESIAN_POINT('',(38.799999999999997,-9.992007E-015,9.992007E-015));
#104=DIRECTION('',(-1.0,0.0,0.0));
#105=DIRECTION('',(0.0,0.994855851830842,0.101300711142272));
#106=AXIS2_PLACEMENT_3D('',#103,#104,#105);
#107=CIRCLE('',#106,13.655513627132917);
#108=EDGE_CURVE('',#102,#102,#107,.T.);
#109=ORIENTED_EDGE('',*,*,#108,.T.);
#110=EDGE_LOOP('',(#109));
#111=FACE_OUTER_BOUND('',#110,.T.);
#112=ORIENTED_EDGE('',*,*,#80,.T.);
#113=EDGE_LOOP('',(#112));
#114=FACE_BOUND('',#113,.T.);
#115=ADVANCED_FACE('',(#111,#114),#100,.T.);
#116=CARTESIAN_POINT('',(38.799999999999997,-9.948558518308428,-1.01300711142271));
#117=DIRECTION('',(1.0,0.0,0.0));
#118=DIRECTION('',(0.0,0.0,-1.0));
#119=AXIS2_PLACEMENT_3D('',#116,#117,#118);
#120=PLANE('',#119);
#121=ORIENTED_EDGE('',*,*,#108,.F.);
#122=EDGE_LOOP('',(#121));
#123=FACE_OUTER_BOUND('',#122,.T.);
#124=ADVANCED_FACE('',(#123),#120,.T.);
#125=CARTESIAN_POINT('',(16.299999999999994,-3.500255E-014,-2.349622E-014));
#126=DIRECTION('',(-1.0,0.0,0.0));
#127=DIRECTION('',(0.0,0.0,1.0));
#128=AXIS2_PLACEMENT_3D('',#125,#126,#127);
#129=TOROIDAL_SURFACE('',#128,28.000000000000011,2.0);
#130=CARTESIAN_POINT('',(16.299999999999994,28.350301324030376,-9.811239210042725));
#131=VERTEX_POINT('',#130);
#132=CARTESIAN_POINT('',(16.299999999999994,-3.500255E-014,-2.349622E-014));
#133=DIRECTION('',(-1.0,0.0,0.0));
#134=DIRECTION('',(0.0,-0.945010044134347,0.327041307001423));
#135=AXIS2_PLACEMENT_3D('',#132,#133,#134);
#136=CIRCLE('',#135,30.0);
#137=EDGE_CURVE('',#131,#131,#136,.T.);
#138=ORIENTED_EDGE('',*,*,#137,.T.);
#139=EDGE_LOOP('',(#138));
#140=FACE_OUTER_BOUND('',#139,.T.);
#141=CARTESIAN_POINT('',(14.300000000000001,26.460281235761691,-9.157156596039872));
#142=VERTEX_POINT('',#141);
#143=CARTESIAN_POINT('',(14.300000000000001,-3.500255E-014,-2.349622E-014));
#144=DIRECTION('',(1.0,0.0,0.0));
#145=DIRECTION('',(0.0,-0.945010044134347,0.327041307001423));
#146=AXIS2_PLACEMENT_3D('',#143,#144,#145);
#147=CIRCLE('',#146,28.000000000000011);
#148=EDGE_CURVE('',#142,#142,#147,.T.);
#149=ORIENTED_EDGE('',*,*,#148,.T.);
#150=EDGE_LOOP('',(#149));
#151=FACE_BOUND('',#150,.T.);
#152=ADVANCED_FACE('',(#140,#151),#129,.T.);
#153=CARTESIAN_POINT('',(24.300000000000001,-3.500255E-014,-2.349622E-014));
#154=DIRECTION('',(-1.0,0.0,0.0));
#155=DIRECTION('',(0.0,0.945010044134347,-0.327041307001423));
#156=AXIS2_PLACEMENT_3D('',#153,#154,#155);
#157=CYLINDRICAL_SURFACE('',#156,30.000000000000014);
#158=CARTESIAN_POINT('',(32.299999999999997,28.35030132403039,-9.81123921004272));
#159=VERTEX_POINT('',#158);
#160=CARTESIAN_POINT('',(32.299999999999997,-3.500255E-014,-2.349622E-014));
#161=DIRECTION('',(1.0,0.0,0.0));
#162=DIRECTION('',(0.0,-0.945010044134347,0.327041307001423));
#163=AXIS2_PLACEMENT_3D('',#160,#161,#162);
#164=CIRCLE('',#163,30.0);
#165=EDGE_CURVE('',#159,#159,#164,.T.);
#166=ORIENTED_EDGE('',*,*,#165,.F.);
#167=EDGE_LOOP('',(#166));
#168=FACE_OUTER_BOUND('',#167,.T.);
#169=ORIENTED_EDGE('',*,*,#137,.F.);
#170=EDGE_LOOP('',(#169));
#171=FACE_BOUND('',#170,.T.);
#172=ADVANCED_FACE('',(#168,#171),#157,.T.);
#173=CARTESIAN_POINT('',(32.299999999999997,-3.500255E-014,-2.349622E-014));
#174=DIRECTION('',(-1.0,0.0,0.0));
#175=DIRECTION('',(0.0,0.0,1.0));
#176=AXIS2_PLACEMENT_3D('',#173,#174,#175);
#177=TOROIDAL_SURFACE('',#176,28.000000000000011,2.0);
#178=CARTESIAN_POINT('',(34.300000000000011,26.460281235761691,-9.157156596039879));
#179=VERTEX_POINT('',#178);
#180=CARTESIAN_POINT('',(34.300000000000011,-3.500255E-014,-2.349622E-014));
#181=DIRECTION('',(-1.0,0.0,0.0));
#182=DIRECTION('',(0.0,-0.945010044134347,0.327041307001423));
#183=AXIS2_PLACEMENT_3D('',#180,#181,#182);
#184=CIRCLE('',#183,28.000000000000011);
#185=EDGE_CURVE('',#179,#179,#184,.T.);
#186=ORIENTED_EDGE('',*,*,#185,.T.);
#187=EDGE_LOOP('',(#186));
#188=FACE_OUTER_BOUND('',#187,.T.);
#189=ORIENTED_EDGE('',*,*,#165,.T.);
#190=EDGE_LOOP('',(#189));
#191=FACE_BOUND('',#190,.T.);
#192=ADVANCED_FACE('',(#188,#191),#177,.T.);
#193=CARTESIAN_POINT('',(14.300000000000001,20.790220970955609,-7.19490875403134));
#194=DIRECTION('',(-1.0,0.0,0.0));
#195=DIRECTION('',(0.0,0.0,1.0));
#196=AXIS2_PLACEMENT_3D('',#193,#194,#195);
#197=PLANE('',#196);
#198=ORIENTED_EDGE('',*,*,#148,.F.);
#199=EDGE_LOOP('',(#198));
#200=FACE_OUTER_BOUND('',#199,.T.);
#201=CARTESIAN_POINT('',(14.300000000000001,-17.500000000000021,2.143132E-015));
#202=VERTEX_POINT('',#201);
#203=CARTESIAN_POINT('',(14.300000000000001,-1.125212E-014,0.0));
#204=DIRECTION('',(-1.0,0.0,0.0));
#205=DIRECTION('',(0.0,1.0,0.0));
#206=AXIS2_PLACEMENT_3D('',#203,#204,#205);
#207=CIRCLE('',#206,17.500000000000007);
#208=EDGE_CURVE('',#202,#202,#207,.T.);
#209=ORIENTED_EDGE('',*,*,#208,.F.);
#210=EDGE_LOOP('',(#209));
#211=FACE_BOUND('',#210,.T.);
#212=ADVANCED_FACE('',(#200,#211),#197,.T.);
#213=CARTESIAN_POINT('',(34.300000000000011,21.735231015089948,-7.521950061032764));
#214=DIRECTION('',(1.0,0.0,0.0));
#215=DIRECTION('',(0.0,0.0,-1.0));
#216=AXIS2_PLACEMENT_3D('',#213,#214,#215);
#217=PLANE('',#216);
#218=ORIENTED_EDGE('',*,*,#185,.F.);
#219=EDGE_LOOP('',(#218));
#220=FACE_OUTER_BOUND('',#219,.T.);
#221=ORIENTED_EDGE('',*,*,#91,.T.);
#222=EDGE_LOOP('',(#221));
#223=FACE_BOUND('',#222,.T.);
#224=ADVANCED_FACE('',(#220,#223),#217,.T.);
#225=CARTESIAN_POINT('',(1.299999999999986,7.499999999999991,0.0));
#226=DIRECTION('',(-1.0,0.0,0.0));
#227=DIRECTION('',(0.0,0.0,1.0));
#228=AXIS2_PLACEMENT_3D('',#225,#226,#227);
#229=PLANE('',#228);
#230=CARTESIAN_POINT('',(1.299999999999986,11.999999999999993,1.469528E-015));
#231=VERTEX_POINT('',#230);
#232=CARTESIAN_POINT('',(1.299999999999986,-1.134509E-014,0.0));
#233=DIRECTION('',(1.0,0.0,0.0));
#234=DIRECTION('',(0.0,-1.0,0.0));
#235=AXIS2_PLACEMENT_3D('',#232,#233,#234);
#236=CIRCLE('',#235,12.000000000000004);
#237=EDGE_CURVE('',#231,#231,#236,.T.);
#238=ORIENTED_EDGE('',*,*,#237,.F.);
#239=EDGE_LOOP('',(#238));
#240=FACE_OUTER_BOUND('',#239,.T.);
#241=ADVANCED_FACE('',(#240),#229,.T.);
#242=CARTESIAN_POINT('',(2.799999999999987,-1.133371E-014,0.0));
#243=DIRECTION('',(1.0,0.0,0.0));
#244=DIRECTION('',(0.0,-1.0,0.0));
#245=AXIS2_PLACEMENT_3D('',#242,#243,#244);
#246=CONICAL_SURFACE('',#245,13.500000000000005,45.000000000000071);
#247=ORIENTED_EDGE('',*,*,#237,.T.);
#248=EDGE_LOOP('',(#247));
#249=FACE_OUTER_BOUND('',#248,.T.);
#250=CARTESIAN_POINT('',(4.299999999999987,14.999999999999996,-1.836910E-015));
#251=VERTEX_POINT('',#250);
#252=CARTESIAN_POINT('',(4.299999999999987,-1.132232E-014,0.0));
#253=DIRECTION('',(-1.0,0.0,0.0));
#254=DIRECTION('',(0.0,-1.0,0.0));
#255=AXIS2_PLACEMENT_3D('',#252,#253,#254);
#256=CIRCLE('',#255,15.000000000000007);
#257=EDGE_CURVE('',#251,#251,#256,.T.);
#258=ORIENTED_EDGE('',*,*,#257,.T.);
#259=EDGE_LOOP('',(#258));
#260=FACE_BOUND('',#259,.T.);
#261=ADVANCED_FACE('',(#249,#260),#246,.T.);
#262=CARTESIAN_POINT('',(5.549999999999979,-1.131284E-014,0.0));
#263=DIRECTION('',(1.0,0.0,0.0));
#264=DIRECTION('',(0.0,1.0,0.0));
#265=AXIS2_PLACEMENT_3D('',#262,#263,#264);
#266=CYLINDRICAL_SURFACE('',#265,15.000000000000007);
#267=CARTESIAN_POINT('',(9.799999999999974,15.000000000000007,0.0));
#268=VERTEX_POINT('',#267);
#269=CARTESIAN_POINT('',(9.799999999999972,-1.128058E-014,0.0));
#270=DIRECTION('',(1.0,0.0,0.0));
#271=DIRECTION('',(0.0,1.0,0.0));
#272=AXIS2_PLACEMENT_3D('',#269,#270,#271);
#273=CIRCLE('',#272,15.000000000000018);
#274=EDGE_CURVE('',#268,#268,#273,.T.);
#275=ORIENTED_EDGE('',*,*,#274,.F.);
#276=EDGE_LOOP('',(#275));
#277=FACE_OUTER_BOUND('',#276,.T.);
#278=ORIENTED_EDGE('',*,*,#257,.F.);
#279=EDGE_LOOP('',(#278));
#280=FACE_BOUND('',#279,.T.);
#281=ADVANCED_FACE('',(#277,#280),#266,.T.);
#282=CARTESIAN_POINT('',(9.799999999999974,16.25,0.0));
#283=DIRECTION('',(-1.0,0.0,0.0));
#284=DIRECTION('',(0.0,0.0,1.0));
#285=AXIS2_PLACEMENT_3D('',#282,#283,#284);
#286=PLANE('',#285);
#287=CARTESIAN_POINT('',(9.799999999999974,17.5,0.0));
#288=VERTEX_POINT('',#287);
#289=CARTESIAN_POINT('',(9.799999999999972,-1.128058E-014,0.0));
#290=DIRECTION('',(1.0,0.0,0.0));
#291=DIRECTION('',(0.0,1.0,0.0));
#292=AXIS2_PLACEMENT_3D('',#289,#290,#291);
#293=CIRCLE('',#292,17.500000000000011);
#294=EDGE_CURVE('',#288,#288,#293,.T.);
#295=ORIENTED_EDGE('',*,*,#294,.F.);
#296=EDGE_LOOP('',(#295));
#297=FACE_OUTER_BOUND('',#296,.T.);
#298=ORIENTED_EDGE('',*,*,#274,.T.);
#299=EDGE_LOOP('',(#298));
#300=FACE_BOUND('',#299,.T.);
#301=ADVANCED_FACE('',(#297,#300),#286,.T.);
#302=CARTESIAN_POINT('',(13.549999999999979,-1.125212E-014,0.0));
#303=DIRECTION('',(1.0,0.0,0.0));
#304=DIRECTION('',(0.0,1.0,0.0));
#305=AXIS2_PLACEMENT_3D('',#302,#303,#304);
#306=CYLINDRICAL_SURFACE('',#305,17.500000000000007);
#307=ORIENTED_EDGE('',*,*,#208,.T.);
#308=EDGE_LOOP('',(#307));
#309=FACE_OUTER_BOUND('',#308,.T.);
#310=ORIENTED_EDGE('',*,*,#294,.T.);
#311=EDGE_LOOP('',(#310));
#312=FACE_BOUND('',#311,.T.);
#313=ADVANCED_FACE('',(#309,#312),#306,.T.);
#314=CLOSED_SHELL('',(#95,#115,#124,#152,#172,#192,#212,#224,#241,#261,#281,#301,#313));
#315=MANIFOLD_SOLID_BREP('Volumenk\S\vrper1',#314);
#316=COLOUR_RGB('',0.356862992048264,0.356862992048264,0.356862992048264);
#317=FILL_AREA_STYLE_COLOUR('',#316);
#318=FILL_AREA_STYLE('',(#317));
#319=SURFACE_STYLE_FILL_AREA(#318);
#320=SURFACE_SIDE_STYLE('',(#319));
#321=SURFACE_STYLE_USAGE(.BOTH.,#320);
#322=PRESENTATION_STYLE_ASSIGNMENT((#321));
#323=STYLED_ITEM('',(#322,#353),#315);
#324=COLOUR_RGB('',0.705882012844086,0.705882012844086,0.705882012844086);
#325=FILL_AREA_STYLE_COLOUR('',#324);
#326=FILL_AREA_STYLE('',(#325));
#327=SURFACE_STYLE_FILL_AREA(#326);
#328=SURFACE_SIDE_STYLE('',(#327));
#329=SURFACE_STYLE_USAGE(.BOTH.,#328);
#330=PRESENTATION_STYLE_ASSIGNMENT((#329));
#331=OVER_RIDING_STYLED_ITEM('',(#330),#95,#323);
#332=OVER_RIDING_STYLED_ITEM('',(#330),#115,#323);
#333=OVER_RIDING_STYLED_ITEM('',(#330),#124,#323);
#334=COLOUR_RGB('',0.945098042488098,0.949019610881805,0.972549021244049);
#335=FILL_AREA_STYLE_COLOUR('',#334);
#336=FILL_AREA_STYLE('',(#335));
#337=SURFACE_STYLE_FILL_AREA(#336);
#338=SURFACE_SIDE_STYLE('',(#337));
#339=SURFACE_STYLE_USAGE(.BOTH.,#338);
#340=PRESENTATION_STYLE_ASSIGNMENT((#339));
#341=OVER_RIDING_STYLED_ITEM('',(#340),#152,#323);
#342=OVER_RIDING_STYLED_ITEM('',(#340),#172,#323);
#343=OVER_RIDING_STYLED_ITEM('',(#340),#192,#323);
#344=OVER_RIDING_STYLED_ITEM('',(#340),#212,#323);
#345=OVER_RIDING_STYLED_ITEM('',(#340),#224,#323);
#346=MECHANICAL_DESIGN_GEOMETRIC_PRESENTATION_REPRESENTATION('',(#323,#331,#332,#333,#341,#342,#343,#344,#345),#67);
#347=COLOUR_RGB('Stahl',0.878431379795074,0.874509811401367,0.858823537826538);
#348=FILL_AREA_STYLE_COLOUR('Stahl',#347);
#349=FILL_AREA_STYLE('Stahl',(#348));
#350=SURFACE_STYLE_FILL_AREA(#349);
#351=SURFACE_SIDE_STYLE('Stahl',(#350));
#352=SURFACE_STYLE_USAGE(.BOTH.,#351);
#353=PRESENTATION_STYLE_ASSIGNMENT((#352));
#354=ADVANCED_BREP_SHAPE_REPRESENTATION('ABSR',(#315),#36);
#355=SHAPE_REPRESENTATION_RELATIONSHIP('SRR','None',#354,#41);
ENDSEC;
END-ISO-10303-21;
