ISO-10303-21;
HEADER;
/* Generated by software containing ST-Developer
 * from STEP Tools, Inc. (www.steptools.com) 
 */

FILE_DESCRIPTION(
/* description */ ('Tigerrolle Edelstahl'),
/* implementation_level */ '2;1');

FILE_NAME(
/* name */ 
'C:\\VAULT_WORKSPACE\\Projekte\\Werksnorm\\Rollen\\Tigerrollen\\TR xxx.
0390\\TR 050.0390\\TR 050.0390.stp',
/* time_stamp */ '2022-08-08T07:32:26+02:00',
/* author */ ('seider'),
/* organization */ ('Alfatec'),
/* preprocessor_version */ 'ST-DEVELOPER v18.1',
/* originating_system */ 'Autodesk Inventor 2020',
/* authorisation */ '');

FILE_SCHEMA (('AUTOMOTIVE_DESIGN { 1 0 10303 214 3 1 1 }'));
ENDSEC;

DATA;
#10=MECHANICAL_DESIGN_GEOMETRIC_PRESENTATION_REPRESENTATION('',(#250,#251,
#252,#253,#254,#255,#256,#257,#258,#259,#260,#261,#262,#263,#264),#528);
#11=SHAPE_REPRESENTATION_RELATIONSHIP('SRR','None',#535,#12);
#12=ADVANCED_BREP_SHAPE_REPRESENTATION('',(#13),#527);
#13=MANIFOLD_SOLID_BREP('Volumenk\X\F6rper1',#279);
#14=TOROIDAL_SURFACE('',#316,24.2499999999998,2.00000000000015);
#15=TOROIDAL_SURFACE('',#325,24.2499999999979,2.00000000000211);
#16=FACE_BOUND('',#45,.T.);
#17=FACE_BOUND('',#48,.T.);
#18=FACE_BOUND('',#54,.T.);
#19=PLANE('',#307);
#20=PLANE('',#313);
#21=PLANE('',#333);
#22=PLANE('',#342);
#23=PLANE('',#343);
#24=CYLINDRICAL_SURFACE('',#304,15.);
#25=CYLINDRICAL_SURFACE('',#310,21.);
#26=CYLINDRICAL_SURFACE('',#321,26.25);
#27=CYLINDRICAL_SURFACE('',#336,20.);
#28=FACE_OUTER_BOUND('',#42,.T.);
#29=FACE_OUTER_BOUND('',#43,.T.);
#30=FACE_OUTER_BOUND('',#44,.T.);
#31=FACE_OUTER_BOUND('',#46,.T.);
#32=FACE_OUTER_BOUND('',#47,.T.);
#33=FACE_OUTER_BOUND('',#49,.T.);
#34=FACE_OUTER_BOUND('',#50,.T.);
#35=FACE_OUTER_BOUND('',#51,.T.);
#36=FACE_OUTER_BOUND('',#52,.T.);
#37=FACE_OUTER_BOUND('',#53,.T.);
#38=FACE_OUTER_BOUND('',#55,.T.);
#39=FACE_OUTER_BOUND('',#56,.T.);
#40=FACE_OUTER_BOUND('',#57,.T.);
#41=FACE_OUTER_BOUND('',#58,.T.);
#42=EDGE_LOOP('',(#171,#172,#173,#174,#175,#176));
#43=EDGE_LOOP('',(#177,#178,#179,#180,#181,#182));
#44=EDGE_LOOP('',(#183,#184));
#45=EDGE_LOOP('',(#185,#186));
#46=EDGE_LOOP('',(#187,#188,#189,#190,#191,#192));
#47=EDGE_LOOP('',(#193,#194));
#48=EDGE_LOOP('',(#195,#196));
#49=EDGE_LOOP('',(#197,#198,#199,#200,#201,#202,#203));
#50=EDGE_LOOP('',(#204,#205,#206,#207,#208,#209,#210,#211));
#51=EDGE_LOOP('',(#212,#213,#214,#215,#216,#217,#218,#219));
#52=EDGE_LOOP('',(#220,#221,#222,#223,#224,#225,#226));
#53=EDGE_LOOP('',(#227,#228));
#54=EDGE_LOOP('',(#229,#230));
#55=EDGE_LOOP('',(#231,#232,#233,#234,#235,#236));
#56=EDGE_LOOP('',(#237,#238,#239,#240,#241,#242));
#57=EDGE_LOOP('',(#243,#244));
#58=EDGE_LOOP('',(#245,#246));
#59=LINE('',#450,#66);
#60=LINE('',#459,#67);
#61=LINE('',#470,#68);
#62=LINE('',#490,#69);
#63=LINE('',#505,#70);
#64=LINE('',#516,#71);
#65=LINE('',#522,#72);
#66=VECTOR('',#352,12.834936490539);
#67=VECTOR('',#363,15.);
#68=VECTOR('',#376,21.);
#69=VECTOR('',#399,26.25);
#70=VECTOR('',#418,23.8838190451025);
#71=VECTOR('',#431,20.);
#72=VECTOR('',#438,16.75);
#73=CIRCLE('',#300,15.);
#74=CIRCLE('',#301,15.);
#75=CIRCLE('',#302,10.669872981078);
#76=CIRCLE('',#303,10.669872981078);
#77=CIRCLE('',#305,15.);
#78=CIRCLE('',#306,15.);
#79=CIRCLE('',#308,21.);
#80=CIRCLE('',#309,21.);
#81=CIRCLE('',#311,21.);
#82=CIRCLE('',#312,21.);
#83=CIRCLE('',#314,24.25);
#84=CIRCLE('',#315,24.25);
#85=CIRCLE('',#317,26.25);
#86=CIRCLE('',#318,26.25);
#87=CIRCLE('',#319,26.25);
#88=CIRCLE('',#320,2.00000000000015);
#89=CIRCLE('',#322,26.25);
#90=CIRCLE('',#323,26.25);
#91=CIRCLE('',#324,26.25);
#92=CIRCLE('',#326,24.767638090205);
#93=CIRCLE('',#327,24.767638090205);
#94=CIRCLE('',#328,24.767638090205);
#95=CIRCLE('',#329,2.00000000000211);
#96=CIRCLE('',#331,23.);
#97=CIRCLE('',#332,23.);
#98=CIRCLE('',#334,20.);
#99=CIRCLE('',#335,20.);
#100=CIRCLE('',#337,20.);
#101=CIRCLE('',#338,20.);
#102=CIRCLE('',#340,13.5);
#103=CIRCLE('',#341,13.5);
#104=VERTEX_POINT('',#445);
#105=VERTEX_POINT('',#446);
#106=VERTEX_POINT('',#449);
#107=VERTEX_POINT('',#451);
#108=VERTEX_POINT('',#455);
#109=VERTEX_POINT('',#456);
#110=VERTEX_POINT('',#461);
#111=VERTEX_POINT('',#462);
#112=VERTEX_POINT('',#466);
#113=VERTEX_POINT('',#467);
#114=VERTEX_POINT('',#472);
#115=VERTEX_POINT('',#473);
#116=VERTEX_POINT('',#477);
#117=VERTEX_POINT('',#478);
#118=VERTEX_POINT('',#480);
#119=VERTEX_POINT('',#485);
#120=VERTEX_POINT('',#486);
#121=VERTEX_POINT('',#488);
#122=VERTEX_POINT('',#493);
#123=VERTEX_POINT('',#494);
#124=VERTEX_POINT('',#496);
#125=VERTEX_POINT('',#501);
#126=VERTEX_POINT('',#502);
#127=VERTEX_POINT('',#507);
#128=VERTEX_POINT('',#508);
#129=VERTEX_POINT('',#512);
#130=VERTEX_POINT('',#513);
#131=VERTEX_POINT('',#518);
#132=VERTEX_POINT('',#519);
#133=EDGE_CURVE('',#104,#105,#73,.T.);
#134=EDGE_CURVE('',#105,#104,#74,.T.);
#135=EDGE_CURVE('',#105,#106,#59,.T.);
#136=EDGE_CURVE('',#106,#107,#75,.T.);
#137=EDGE_CURVE('',#107,#106,#76,.T.);
#138=EDGE_CURVE('',#108,#109,#77,.T.);
#139=EDGE_CURVE('',#109,#108,#78,.T.);
#140=EDGE_CURVE('',#109,#105,#60,.T.);
#141=EDGE_CURVE('',#110,#111,#79,.T.);
#142=EDGE_CURVE('',#111,#110,#80,.T.);
#143=EDGE_CURVE('',#112,#113,#81,.T.);
#144=EDGE_CURVE('',#113,#112,#82,.T.);
#145=EDGE_CURVE('',#113,#111,#61,.T.);
#146=EDGE_CURVE('',#114,#115,#83,.T.);
#147=EDGE_CURVE('',#115,#114,#84,.T.);
#148=EDGE_CURVE('',#116,#117,#85,.T.);
#149=EDGE_CURVE('',#118,#116,#86,.T.);
#150=EDGE_CURVE('',#117,#118,#87,.T.);
#151=EDGE_CURVE('',#117,#115,#88,.T.);
#152=EDGE_CURVE('',#119,#120,#89,.T.);
#153=EDGE_CURVE('',#121,#119,#90,.T.);
#154=EDGE_CURVE('',#121,#118,#62,.T.);
#155=EDGE_CURVE('',#120,#121,#91,.T.);
#156=EDGE_CURVE('',#122,#123,#92,.T.);
#157=EDGE_CURVE('',#124,#122,#93,.T.);
#158=EDGE_CURVE('',#123,#124,#94,.T.);
#159=EDGE_CURVE('',#123,#120,#95,.T.);
#160=EDGE_CURVE('',#125,#126,#96,.T.);
#161=EDGE_CURVE('',#126,#125,#97,.T.);
#162=EDGE_CURVE('',#126,#124,#63,.T.);
#163=EDGE_CURVE('',#127,#128,#98,.T.);
#164=EDGE_CURVE('',#128,#127,#99,.T.);
#165=EDGE_CURVE('',#129,#130,#100,.T.);
#166=EDGE_CURVE('',#130,#129,#101,.T.);
#167=EDGE_CURVE('',#130,#128,#64,.T.);
#168=EDGE_CURVE('',#131,#132,#102,.T.);
#169=EDGE_CURVE('',#132,#131,#103,.T.);
#170=EDGE_CURVE('',#132,#130,#65,.T.);
#171=ORIENTED_EDGE('',*,*,#133,.F.);
#172=ORIENTED_EDGE('',*,*,#134,.F.);
#173=ORIENTED_EDGE('',*,*,#135,.T.);
#174=ORIENTED_EDGE('',*,*,#136,.T.);
#175=ORIENTED_EDGE('',*,*,#137,.T.);
#176=ORIENTED_EDGE('',*,*,#135,.F.);
#177=ORIENTED_EDGE('',*,*,#138,.F.);
#178=ORIENTED_EDGE('',*,*,#139,.F.);
#179=ORIENTED_EDGE('',*,*,#140,.T.);
#180=ORIENTED_EDGE('',*,*,#134,.T.);
#181=ORIENTED_EDGE('',*,*,#133,.T.);
#182=ORIENTED_EDGE('',*,*,#140,.F.);
#183=ORIENTED_EDGE('',*,*,#141,.F.);
#184=ORIENTED_EDGE('',*,*,#142,.F.);
#185=ORIENTED_EDGE('',*,*,#138,.T.);
#186=ORIENTED_EDGE('',*,*,#139,.T.);
#187=ORIENTED_EDGE('',*,*,#143,.F.);
#188=ORIENTED_EDGE('',*,*,#144,.F.);
#189=ORIENTED_EDGE('',*,*,#145,.T.);
#190=ORIENTED_EDGE('',*,*,#142,.T.);
#191=ORIENTED_EDGE('',*,*,#141,.T.);
#192=ORIENTED_EDGE('',*,*,#145,.F.);
#193=ORIENTED_EDGE('',*,*,#146,.F.);
#194=ORIENTED_EDGE('',*,*,#147,.F.);
#195=ORIENTED_EDGE('',*,*,#143,.T.);
#196=ORIENTED_EDGE('',*,*,#144,.T.);
#197=ORIENTED_EDGE('',*,*,#148,.F.);
#198=ORIENTED_EDGE('',*,*,#149,.F.);
#199=ORIENTED_EDGE('',*,*,#150,.F.);
#200=ORIENTED_EDGE('',*,*,#151,.T.);
#201=ORIENTED_EDGE('',*,*,#147,.T.);
#202=ORIENTED_EDGE('',*,*,#146,.T.);
#203=ORIENTED_EDGE('',*,*,#151,.F.);
#204=ORIENTED_EDGE('',*,*,#152,.F.);
#205=ORIENTED_EDGE('',*,*,#153,.F.);
#206=ORIENTED_EDGE('',*,*,#154,.T.);
#207=ORIENTED_EDGE('',*,*,#149,.T.);
#208=ORIENTED_EDGE('',*,*,#148,.T.);
#209=ORIENTED_EDGE('',*,*,#150,.T.);
#210=ORIENTED_EDGE('',*,*,#154,.F.);
#211=ORIENTED_EDGE('',*,*,#155,.F.);
#212=ORIENTED_EDGE('',*,*,#156,.F.);
#213=ORIENTED_EDGE('',*,*,#157,.F.);
#214=ORIENTED_EDGE('',*,*,#158,.F.);
#215=ORIENTED_EDGE('',*,*,#159,.T.);
#216=ORIENTED_EDGE('',*,*,#155,.T.);
#217=ORIENTED_EDGE('',*,*,#153,.T.);
#218=ORIENTED_EDGE('',*,*,#152,.T.);
#219=ORIENTED_EDGE('',*,*,#159,.F.);
#220=ORIENTED_EDGE('',*,*,#160,.F.);
#221=ORIENTED_EDGE('',*,*,#161,.F.);
#222=ORIENTED_EDGE('',*,*,#162,.T.);
#223=ORIENTED_EDGE('',*,*,#157,.T.);
#224=ORIENTED_EDGE('',*,*,#156,.T.);
#225=ORIENTED_EDGE('',*,*,#158,.T.);
#226=ORIENTED_EDGE('',*,*,#162,.F.);
#227=ORIENTED_EDGE('',*,*,#160,.T.);
#228=ORIENTED_EDGE('',*,*,#161,.T.);
#229=ORIENTED_EDGE('',*,*,#163,.F.);
#230=ORIENTED_EDGE('',*,*,#164,.F.);
#231=ORIENTED_EDGE('',*,*,#165,.F.);
#232=ORIENTED_EDGE('',*,*,#166,.F.);
#233=ORIENTED_EDGE('',*,*,#167,.T.);
#234=ORIENTED_EDGE('',*,*,#164,.T.);
#235=ORIENTED_EDGE('',*,*,#163,.T.);
#236=ORIENTED_EDGE('',*,*,#167,.F.);
#237=ORIENTED_EDGE('',*,*,#168,.F.);
#238=ORIENTED_EDGE('',*,*,#169,.F.);
#239=ORIENTED_EDGE('',*,*,#170,.T.);
#240=ORIENTED_EDGE('',*,*,#166,.T.);
#241=ORIENTED_EDGE('',*,*,#165,.T.);
#242=ORIENTED_EDGE('',*,*,#170,.F.);
#243=ORIENTED_EDGE('',*,*,#168,.T.);
#244=ORIENTED_EDGE('',*,*,#169,.T.);
#245=ORIENTED_EDGE('',*,*,#137,.F.);
#246=ORIENTED_EDGE('',*,*,#136,.F.);
#247=CONICAL_SURFACE('',#299,12.834936490539,1.04719755119658);
#248=CONICAL_SURFACE('',#330,23.8838190451025,1.30899693899571);
#249=CONICAL_SURFACE('',#339,16.75,1.47112767430373);
#250=STYLED_ITEM('',(#545),#265);
#251=STYLED_ITEM('',(#545),#266);
#252=STYLED_ITEM('',(#545),#267);
#253=STYLED_ITEM('',(#545),#268);
#254=STYLED_ITEM('',(#545),#269);
#255=STYLED_ITEM('',(#545),#270);
#256=STYLED_ITEM('',(#545),#271);
#257=STYLED_ITEM('',(#545),#272);
#258=STYLED_ITEM('',(#545),#273);
#259=STYLED_ITEM('',(#545),#274);
#260=STYLED_ITEM('',(#546),#275);
#261=STYLED_ITEM('',(#546),#276);
#262=STYLED_ITEM('',(#546),#277);
#263=STYLED_ITEM('',(#545),#278);
#264=STYLED_ITEM('',(#544),#13);
#265=ADVANCED_FACE('',(#28),#247,.T.);
#266=ADVANCED_FACE('',(#29),#24,.T.);
#267=ADVANCED_FACE('',(#30,#16),#19,.T.);
#268=ADVANCED_FACE('',(#31),#25,.T.);
#269=ADVANCED_FACE('',(#32,#17),#20,.T.);
#270=ADVANCED_FACE('',(#33),#14,.T.);
#271=ADVANCED_FACE('',(#34),#26,.T.);
#272=ADVANCED_FACE('',(#35),#15,.T.);
#273=ADVANCED_FACE('',(#36),#248,.T.);
#274=ADVANCED_FACE('',(#37,#18),#21,.T.);
#275=ADVANCED_FACE('',(#38),#27,.T.);
#276=ADVANCED_FACE('',(#39),#249,.T.);
#277=ADVANCED_FACE('',(#40),#22,.T.);
#278=ADVANCED_FACE('',(#41),#23,.T.);
#279=CLOSED_SHELL('',(#265,#266,#267,#268,#269,#270,#271,#272,#273,#274,
#275,#276,#277,#278));
#280=DERIVED_UNIT_ELEMENT(#282,1.);
#281=DERIVED_UNIT_ELEMENT(#530,3.);
#282=(
MASS_UNIT()
NAMED_UNIT(*)
SI_UNIT($,.GRAM.)
);
#283=DERIVED_UNIT((#280,#281));
#284=MEASURE_REPRESENTATION_ITEM('density measure',
POSITIVE_RATIO_MEASURE(7.75),#283);
#285=PROPERTY_DEFINITION_REPRESENTATION(#290,#287);
#286=PROPERTY_DEFINITION_REPRESENTATION(#291,#288);
#287=REPRESENTATION('material name',(#289),#527);
#288=REPRESENTATION('density',(#284),#527);
#289=DESCRIPTIVE_REPRESENTATION_ITEM('X 5 Cr Ni 18.9 (1.4301)',
'X 5 Cr Ni 18.9 (1.4301)');
#290=PROPERTY_DEFINITION('material property','material name',#537);
#291=PROPERTY_DEFINITION('material property','density of part',#537);
#292=DATE_TIME_ROLE('creation_date');
#293=APPLIED_DATE_AND_TIME_ASSIGNMENT(#294,#292,(#537));
#294=DATE_AND_TIME(#295,#296);
#295=CALENDAR_DATE(2009,20,11);
#296=LOCAL_TIME(9,52,43.,#297);
#297=COORDINATED_UNIVERSAL_TIME_OFFSET(0,0,.BEHIND.);
#298=AXIS2_PLACEMENT_3D('placement',#443,#344,#345);
#299=AXIS2_PLACEMENT_3D('',#444,#346,#347);
#300=AXIS2_PLACEMENT_3D('',#447,#348,#349);
#301=AXIS2_PLACEMENT_3D('',#448,#350,#351);
#302=AXIS2_PLACEMENT_3D('',#452,#353,#354);
#303=AXIS2_PLACEMENT_3D('',#453,#355,#356);
#304=AXIS2_PLACEMENT_3D('',#454,#357,#358);
#305=AXIS2_PLACEMENT_3D('',#457,#359,#360);
#306=AXIS2_PLACEMENT_3D('',#458,#361,#362);
#307=AXIS2_PLACEMENT_3D('',#460,#364,#365);
#308=AXIS2_PLACEMENT_3D('',#463,#366,#367);
#309=AXIS2_PLACEMENT_3D('',#464,#368,#369);
#310=AXIS2_PLACEMENT_3D('',#465,#370,#371);
#311=AXIS2_PLACEMENT_3D('',#468,#372,#373);
#312=AXIS2_PLACEMENT_3D('',#469,#374,#375);
#313=AXIS2_PLACEMENT_3D('',#471,#377,#378);
#314=AXIS2_PLACEMENT_3D('',#474,#379,#380);
#315=AXIS2_PLACEMENT_3D('',#475,#381,#382);
#316=AXIS2_PLACEMENT_3D('',#476,#383,#384);
#317=AXIS2_PLACEMENT_3D('',#479,#385,#386);
#318=AXIS2_PLACEMENT_3D('',#481,#387,#388);
#319=AXIS2_PLACEMENT_3D('',#482,#389,#390);
#320=AXIS2_PLACEMENT_3D('',#483,#391,#392);
#321=AXIS2_PLACEMENT_3D('',#484,#393,#394);
#322=AXIS2_PLACEMENT_3D('',#487,#395,#396);
#323=AXIS2_PLACEMENT_3D('',#489,#397,#398);
#324=AXIS2_PLACEMENT_3D('',#491,#400,#401);
#325=AXIS2_PLACEMENT_3D('',#492,#402,#403);
#326=AXIS2_PLACEMENT_3D('',#495,#404,#405);
#327=AXIS2_PLACEMENT_3D('',#497,#406,#407);
#328=AXIS2_PLACEMENT_3D('',#498,#408,#409);
#329=AXIS2_PLACEMENT_3D('',#499,#410,#411);
#330=AXIS2_PLACEMENT_3D('',#500,#412,#413);
#331=AXIS2_PLACEMENT_3D('',#503,#414,#415);
#332=AXIS2_PLACEMENT_3D('',#504,#416,#417);
#333=AXIS2_PLACEMENT_3D('',#506,#419,#420);
#334=AXIS2_PLACEMENT_3D('',#509,#421,#422);
#335=AXIS2_PLACEMENT_3D('',#510,#423,#424);
#336=AXIS2_PLACEMENT_3D('',#511,#425,#426);
#337=AXIS2_PLACEMENT_3D('',#514,#427,#428);
#338=AXIS2_PLACEMENT_3D('',#515,#429,#430);
#339=AXIS2_PLACEMENT_3D('',#517,#432,#433);
#340=AXIS2_PLACEMENT_3D('',#520,#434,#435);
#341=AXIS2_PLACEMENT_3D('',#521,#436,#437);
#342=AXIS2_PLACEMENT_3D('',#523,#439,#440);
#343=AXIS2_PLACEMENT_3D('',#524,#441,#442);
#344=DIRECTION('axis',(0.,0.,1.));
#345=DIRECTION('refdir',(1.,0.,0.));
#346=DIRECTION('center_axis',(1.,0.,0.));
#347=DIRECTION('ref_axis',(0.,1.,0.));
#348=DIRECTION('center_axis',(1.,0.,0.));
#349=DIRECTION('ref_axis',(0.,1.,0.));
#350=DIRECTION('center_axis',(1.,0.,0.));
#351=DIRECTION('ref_axis',(0.,1.,0.));
#352=DIRECTION('',(-0.500000000000017,0.866025403784429,1.0605752387249E-16));
#353=DIRECTION('center_axis',(1.,0.,0.));
#354=DIRECTION('ref_axis',(0.,1.,0.));
#355=DIRECTION('center_axis',(1.,0.,0.));
#356=DIRECTION('ref_axis',(0.,1.,0.));
#357=DIRECTION('center_axis',(1.,0.,0.));
#358=DIRECTION('ref_axis',(0.,1.,0.));
#359=DIRECTION('center_axis',(1.,0.,0.));
#360=DIRECTION('ref_axis',(0.,1.,0.));
#361=DIRECTION('center_axis',(1.,0.,0.));
#362=DIRECTION('ref_axis',(0.,1.,0.));
#363=DIRECTION('',(-1.,0.,0.));
#364=DIRECTION('center_axis',(-1.,0.,0.));
#365=DIRECTION('ref_axis',(0.,0.,1.));
#366=DIRECTION('center_axis',(1.,0.,0.));
#367=DIRECTION('ref_axis',(0.,1.,0.));
#368=DIRECTION('center_axis',(1.,0.,0.));
#369=DIRECTION('ref_axis',(0.,1.,0.));
#370=DIRECTION('center_axis',(1.,0.,0.));
#371=DIRECTION('ref_axis',(0.,1.,0.));
#372=DIRECTION('center_axis',(1.,0.,0.));
#373=DIRECTION('ref_axis',(0.,1.,0.));
#374=DIRECTION('center_axis',(1.,0.,0.));
#375=DIRECTION('ref_axis',(0.,1.,0.));
#376=DIRECTION('',(-1.,0.,0.));
#377=DIRECTION('center_axis',(-1.,0.,0.));
#378=DIRECTION('ref_axis',(0.,0.,1.));
#379=DIRECTION('center_axis',(1.,0.,0.));
#380=DIRECTION('ref_axis',(0.,1.,0.));
#381=DIRECTION('center_axis',(1.,0.,0.));
#382=DIRECTION('ref_axis',(0.,1.,0.));
#383=DIRECTION('center_axis',(1.,0.,0.));
#384=DIRECTION('ref_axis',(0.,0.,-1.));
#385=DIRECTION('center_axis',(1.,0.,0.));
#386=DIRECTION('ref_axis',(0.,1.,0.));
#387=DIRECTION('center_axis',(1.,0.,0.));
#388=DIRECTION('ref_axis',(0.,1.,0.));
#389=DIRECTION('center_axis',(1.,0.,0.));
#390=DIRECTION('ref_axis',(0.,1.,0.));
#391=DIRECTION('center_axis',(0.,-1.,-1.22464679914735E-16));
#392=DIRECTION('ref_axis',(0.,-1.22464679914735E-16,1.));
#393=DIRECTION('center_axis',(1.,0.,0.));
#394=DIRECTION('ref_axis',(0.,1.,0.));
#395=DIRECTION('center_axis',(1.,0.,0.));
#396=DIRECTION('ref_axis',(0.,1.,0.));
#397=DIRECTION('center_axis',(1.,0.,0.));
#398=DIRECTION('ref_axis',(0.,1.,0.));
#399=DIRECTION('',(-1.,0.,0.));
#400=DIRECTION('center_axis',(1.,0.,0.));
#401=DIRECTION('ref_axis',(0.,1.,0.));
#402=DIRECTION('center_axis',(1.,0.,0.));
#403=DIRECTION('ref_axis',(0.,0.,-1.));
#404=DIRECTION('center_axis',(1.,0.,0.));
#405=DIRECTION('ref_axis',(0.,1.,0.));
#406=DIRECTION('center_axis',(1.,0.,0.));
#407=DIRECTION('ref_axis',(0.,1.,0.));
#408=DIRECTION('center_axis',(1.,0.,0.));
#409=DIRECTION('ref_axis',(0.,1.,0.));
#410=DIRECTION('center_axis',(0.,-1.,-1.22464679914735E-16));
#411=DIRECTION('ref_axis',(0.,-1.22464679914735E-16,1.));
#412=DIRECTION('center_axis',(-1.,0.,0.));
#413=DIRECTION('ref_axis',(0.,1.,0.));
#414=DIRECTION('center_axis',(1.,0.,0.));
#415=DIRECTION('ref_axis',(0.,1.,0.));
#416=DIRECTION('center_axis',(1.,0.,0.));
#417=DIRECTION('ref_axis',(0.,1.,0.));
#418=DIRECTION('',(-0.258819045102561,-0.965925826289058,-1.18291797137866E-16));
#419=DIRECTION('center_axis',(1.,0.,0.));
#420=DIRECTION('ref_axis',(0.,0.,-1.));
#421=DIRECTION('center_axis',(1.,0.,0.));
#422=DIRECTION('ref_axis',(0.,1.,0.));
#423=DIRECTION('center_axis',(1.,0.,0.));
#424=DIRECTION('ref_axis',(0.,1.,0.));
#425=DIRECTION('center_axis',(1.,0.,0.));
#426=DIRECTION('ref_axis',(0.,1.,0.));
#427=DIRECTION('center_axis',(1.,0.,0.));
#428=DIRECTION('ref_axis',(0.,1.,0.));
#429=DIRECTION('center_axis',(1.,0.,0.));
#430=DIRECTION('ref_axis',(0.,1.,0.));
#431=DIRECTION('',(-1.,0.,0.));
#432=DIRECTION('center_axis',(-1.,0.,0.));
#433=DIRECTION('ref_axis',(0.,1.,0.));
#434=DIRECTION('center_axis',(1.,0.,0.));
#435=DIRECTION('ref_axis',(0.,1.,0.));
#436=DIRECTION('center_axis',(1.,0.,0.));
#437=DIRECTION('ref_axis',(0.,1.,0.));
#438=DIRECTION('',(-0.0995037190209988,-0.995037190209989,-1.21856911002324E-16));
#439=DIRECTION('center_axis',(1.,0.,0.));
#440=DIRECTION('ref_axis',(0.,0.,-1.));
#441=DIRECTION('center_axis',(-1.,0.,0.));
#442=DIRECTION('ref_axis',(0.,0.,1.));
#443=CARTESIAN_POINT('',(0.,0.,0.));
#444=CARTESIAN_POINT('Origin',(-3.75,0.,0.));
#445=CARTESIAN_POINT('',(-2.5,15.,0.));
#446=CARTESIAN_POINT('',(-2.5,-15.,-1.83697019872103E-15));
#447=CARTESIAN_POINT('Origin',(-2.5,0.,0.));
#448=CARTESIAN_POINT('Origin',(-2.5,0.,0.));
#449=CARTESIAN_POINT('',(-5.,-10.669872981078,-1.3066825793586E-15));
#450=CARTESIAN_POINT('',(-3.75,-12.834936490539,-1.57182638903982E-15));
#451=CARTESIAN_POINT('',(-5.,10.669872981078,0.));
#452=CARTESIAN_POINT('Origin',(-5.,0.,0.));
#453=CARTESIAN_POINT('Origin',(-5.,0.,0.));
#454=CARTESIAN_POINT('Origin',(-1.25000000000001,0.,0.));
#455=CARTESIAN_POINT('',(-1.4210854715202E-14,15.,0.));
#456=CARTESIAN_POINT('',(-1.4432899320127E-14,-15.,-1.83697019872103E-15));
#457=CARTESIAN_POINT('Origin',(-1.4432899320127E-14,0.,0.));
#458=CARTESIAN_POINT('Origin',(-1.4432899320127E-14,0.,0.));
#459=CARTESIAN_POINT('',(-1.25000000000001,-15.,-1.83697019872103E-15));
#460=CARTESIAN_POINT('Origin',(-7.105427357601E-15,18.,0.));
#461=CARTESIAN_POINT('',(0.,21.,0.));
#462=CARTESIAN_POINT('',(0.,-21.,-2.57175827820944E-15));
#463=CARTESIAN_POINT('Origin',(0.,0.,0.));
#464=CARTESIAN_POINT('Origin',(0.,0.,0.));
#465=CARTESIAN_POINT('Origin',(3.,0.,0.));
#466=CARTESIAN_POINT('',(6.,21.,0.));
#467=CARTESIAN_POINT('',(6.,-21.,-2.57175827820944E-15));
#468=CARTESIAN_POINT('Origin',(6.,0.,0.));
#469=CARTESIAN_POINT('Origin',(6.,0.,0.));
#470=CARTESIAN_POINT('',(3.,-21.,-2.57175827820944E-15));
#471=CARTESIAN_POINT('Origin',(6.,22.625,0.));
#472=CARTESIAN_POINT('',(6.,24.25,0.));
#473=CARTESIAN_POINT('',(6.,-2.96976848793233E-15,24.25));
#474=CARTESIAN_POINT('Origin',(6.,0.,0.));
#475=CARTESIAN_POINT('Origin',(6.,0.,0.));
#476=CARTESIAN_POINT('Origin',(8.00000000000015,0.,0.));
#477=CARTESIAN_POINT('',(8.,26.25,0.));
#478=CARTESIAN_POINT('',(8.,-3.2146978477618E-15,26.25));
#479=CARTESIAN_POINT('Origin',(8.,0.,0.));
#480=CARTESIAN_POINT('',(8.,-26.25,-3.2146978477618E-15));
#481=CARTESIAN_POINT('Origin',(8.,0.,0.));
#482=CARTESIAN_POINT('Origin',(8.,0.,0.));
#483=CARTESIAN_POINT('Origin',(8.00000000000015,-2.96976848793231E-15,24.2499999999998));
#484=CARTESIAN_POINT('Origin',(14.2972555743205,0.,0.));
#485=CARTESIAN_POINT('',(20.594511148641,26.25,0.));
#486=CARTESIAN_POINT('',(20.594511148641,-3.2146978477618E-15,26.25));
#487=CARTESIAN_POINT('Origin',(20.594511148641,0.,0.));
#488=CARTESIAN_POINT('',(20.594511148641,-26.25,-3.2146978477618E-15));
#489=CARTESIAN_POINT('Origin',(20.594511148641,0.,0.));
#490=CARTESIAN_POINT('',(14.2972555743205,-26.25,-3.2146978477618E-15));
#491=CARTESIAN_POINT('Origin',(20.594511148641,0.,0.));
#492=CARTESIAN_POINT('Origin',(20.5945111486392,0.,0.));
#493=CARTESIAN_POINT('',(22.526362801219,24.767638090205,0.));
#494=CARTESIAN_POINT('',(22.526362801219,-3.03316087096096E-15,24.767638090205));
#495=CARTESIAN_POINT('Origin',(22.526362801219,0.,0.));
#496=CARTESIAN_POINT('',(22.526362801219,-24.767638090205,-3.03316087096096E-15));
#497=CARTESIAN_POINT('Origin',(22.526362801219,0.,0.));
#498=CARTESIAN_POINT('Origin',(22.526362801219,0.,0.));
#499=CARTESIAN_POINT('Origin',(20.5945111486392,-2.96976848793207E-15,24.2499999999979));
#500=CARTESIAN_POINT('Origin',(22.7631814006095,0.,0.));
#501=CARTESIAN_POINT('',(23.,23.,0.));
#502=CARTESIAN_POINT('',(23.,-23.,-2.81668763803891E-15));
#503=CARTESIAN_POINT('Origin',(23.,0.,0.));
#504=CARTESIAN_POINT('Origin',(23.,0.,0.));
#505=CARTESIAN_POINT('',(22.7631814006095,-23.8838190451025,-2.92492425449994E-15));
#506=CARTESIAN_POINT('Origin',(23.,21.5,0.));
#507=CARTESIAN_POINT('',(23.,20.,0.));
#508=CARTESIAN_POINT('',(23.,-20.,-2.44929359829471E-15));
#509=CARTESIAN_POINT('Origin',(23.,0.,0.));
#510=CARTESIAN_POINT('Origin',(23.,0.,0.));
#511=CARTESIAN_POINT('Origin',(25.175,0.,0.));
#512=CARTESIAN_POINT('',(27.35,20.,0.));
#513=CARTESIAN_POINT('',(27.35,-20.,-2.44929359829471E-15));
#514=CARTESIAN_POINT('Origin',(27.35,0.,0.));
#515=CARTESIAN_POINT('Origin',(27.35,0.,0.));
#516=CARTESIAN_POINT('',(25.175,-20.,-2.44929359829471E-15));
#517=CARTESIAN_POINT('Origin',(27.675,0.,0.));
#518=CARTESIAN_POINT('',(28.,13.5,0.));
#519=CARTESIAN_POINT('',(28.,-13.5,-1.65327317884893E-15));
#520=CARTESIAN_POINT('Origin',(28.,0.,0.));
#521=CARTESIAN_POINT('Origin',(28.,0.,0.));
#522=CARTESIAN_POINT('',(27.675,-16.75,-2.05128338857182E-15));
#523=CARTESIAN_POINT('Origin',(28.,6.75,0.));
#524=CARTESIAN_POINT('Origin',(-5.,5.334936490539,0.));
#525=UNCERTAINTY_MEASURE_WITH_UNIT(LENGTH_MEASURE(0.01),#529,
'DISTANCE_ACCURACY_VALUE',
'Maximum model space distance between geometric entities at asserted c
onnectivities');
#526=UNCERTAINTY_MEASURE_WITH_UNIT(LENGTH_MEASURE(0.01),#529,
'DISTANCE_ACCURACY_VALUE',
'Maximum model space distance between geometric entities at asserted c
onnectivities');
#527=(
GEOMETRIC_REPRESENTATION_CONTEXT(3)
GLOBAL_UNCERTAINTY_ASSIGNED_CONTEXT((#525))
GLOBAL_UNIT_ASSIGNED_CONTEXT((#529,#531,#532))
REPRESENTATION_CONTEXT('','3D')
);
#528=(
GEOMETRIC_REPRESENTATION_CONTEXT(3)
GLOBAL_UNCERTAINTY_ASSIGNED_CONTEXT((#526))
GLOBAL_UNIT_ASSIGNED_CONTEXT((#529,#531,#532))
REPRESENTATION_CONTEXT('','3D')
);
#529=(
LENGTH_UNIT()
NAMED_UNIT(*)
SI_UNIT(.MILLI.,.METRE.)
);
#530=(
LENGTH_UNIT()
NAMED_UNIT(*)
SI_UNIT(.CENTI.,.METRE.)
);
#531=(
NAMED_UNIT(*)
PLANE_ANGLE_UNIT()
SI_UNIT($,.RADIAN.)
);
#532=(
NAMED_UNIT(*)
SI_UNIT($,.STERADIAN.)
SOLID_ANGLE_UNIT()
);
#533=SHAPE_DEFINITION_REPRESENTATION(#534,#535);
#534=PRODUCT_DEFINITION_SHAPE('',$,#537);
#535=SHAPE_REPRESENTATION('',(#298),#527);
#536=PRODUCT_DEFINITION_CONTEXT('part definition',#541,'design');
#537=PRODUCT_DEFINITION('TR 050.0390','TR 050.0390',#538,#536);
#538=PRODUCT_DEFINITION_FORMATION('',$,#543);
#539=PRODUCT_RELATED_PRODUCT_CATEGORY('TR 050.0390','TR 050.0390',(#543));
#540=APPLICATION_PROTOCOL_DEFINITION('international standard',
'automotive_design',2009,#541);
#541=APPLICATION_CONTEXT(
'Core Data for Automotive Mechanical Design Process');
#542=PRODUCT_CONTEXT('part definition',#541,'mechanical');
#543=PRODUCT('TR 050.0390','TR 050.0390','Tigerrolle Edelstahl',(#542));
#544=PRESENTATION_STYLE_ASSIGNMENT((#547));
#545=PRESENTATION_STYLE_ASSIGNMENT((#548));
#546=PRESENTATION_STYLE_ASSIGNMENT((#549));
#547=SURFACE_STYLE_USAGE(.BOTH.,#556);
#548=SURFACE_STYLE_USAGE(.BOTH.,#557);
#549=SURFACE_STYLE_USAGE(.BOTH.,#558);
#550=SURFACE_STYLE_RENDERING_WITH_PROPERTIES($,#568,(#553));
#551=SURFACE_STYLE_RENDERING_WITH_PROPERTIES($,#569,(#554));
#552=SURFACE_STYLE_RENDERING_WITH_PROPERTIES($,#570,(#555));
#553=SURFACE_STYLE_TRANSPARENT(0.);
#554=SURFACE_STYLE_TRANSPARENT(0.);
#555=SURFACE_STYLE_TRANSPARENT(0.);
#556=SURFACE_SIDE_STYLE('',(#559,#550));
#557=SURFACE_SIDE_STYLE('',(#560,#551));
#558=SURFACE_SIDE_STYLE('',(#561,#552));
#559=SURFACE_STYLE_FILL_AREA(#562);
#560=SURFACE_STYLE_FILL_AREA(#563);
#561=SURFACE_STYLE_FILL_AREA(#564);
#562=FILL_AREA_STYLE('',(#565));
#563=FILL_AREA_STYLE('',(#566));
#564=FILL_AREA_STYLE('',(#567));
#565=FILL_AREA_STYLE_COLOUR('',#568);
#566=FILL_AREA_STYLE_COLOUR('',#569);
#567=FILL_AREA_STYLE_COLOUR('',#570);
#568=COLOUR_RGB('',0.87843137254902,0.874509803921569,0.858823529411765);
#569=COLOUR_RGB('',0.956862745098039,0.956862745098039,0.956862745098039);
#570=COLOUR_RGB('',0.380392156862745,0.368627450980392,0.349019607843137);
ENDSEC;
END-ISO-10303-21;
