ISO-10303-21;
HEADER;
/* Generated by software containing ST-Developer
 * from STEP Tools, Inc. (www.steptools.com) 
 */

FILE_DESCRIPTION(
/* description */ ('Tigerrolle Edelstahl'),
/* implementation_level */ '2;1');

FILE_NAME(
/* name */ 
'C:\\VAULT_WORKSPACE\\Projekte\\Werksnorm\\Rollen\\Tigerrollen\\TR xxx.
0390\\TR 070.0390\\TR 070.0390.stp',
/* time_stamp */ '2022-08-08T07:36:45+02:00',
/* author */ ('seider'),
/* organization */ ('Alfatec'),
/* preprocessor_version */ 'ST-DEVELOPER v18.1',
/* originating_system */ 'Autodesk Inventor 2020',
/* authorisation */ '');

FILE_SCHEMA (('AUTOMOTIVE_DESIGN { 1 0 10303 214 3 1 1 }'));
ENDSEC;

DATA;
#10=MECHANICAL_DESIGN_GEOMETRIC_PRESENTATION_REPRESENTATION('',(#283,#284,
#285,#286,#287,#288,#289,#290,#291,#292,#293,#294,#295,#296,#297),#593);
#11=SHAPE_REPRESENTATION_RELATIONSHIP('SRR','None',#600,#12);
#12=ADVANCED_BREP_SHAPE_REPRESENTATION('',(#13),#592);
#13=MANIFOLD_SOLID_BREP('Volumenk\X\F6rper1',#314);
#14=TOROIDAL_SURFACE('',#352,33.5500000000006,1.49999999999938);
#15=TOROIDAL_SURFACE('',#361,31.04969265791,4.00030734326376);
#16=FACE_BOUND('',#64,.T.);
#17=FACE_BOUND('',#67,.T.);
#18=FACE_BOUND('',#73,.T.);
#19=FACE_BOUND('',#76,.T.);
#20=CYLINDRICAL_SURFACE('',#340,17.5);
#21=CYLINDRICAL_SURFACE('',#346,27.);
#22=CYLINDRICAL_SURFACE('',#357,35.05);
#23=CYLINDRICAL_SURFACE('',#372,17.4225);
#24=CYLINDRICAL_SURFACE('',#378,20.0776);
#25=LINE('',#508,#33);
#26=LINE('',#514,#34);
#27=LINE('',#525,#35);
#28=LINE('',#546,#36);
#29=LINE('',#560,#37);
#30=LINE('',#571,#38);
#31=LINE('',#582,#39);
#32=LINE('',#588,#40);
#33=VECTOR('',#399,16.3);
#34=VECTOR('',#406,17.5);
#35=VECTOR('',#419,27.);
#36=VECTOR('',#444,35.05);
#37=VECTOR('',#461,30.459030991301);
#38=VECTOR('',#474,17.4225);
#39=VECTOR('',#487,20.0776);
#40=VECTOR('',#494,16.34555);
#41=CONICAL_SURFACE('',#337,16.3,0.540419500270585);
#42=CONICAL_SURFACE('',#366,30.459030991301,1.22171999231074);
#43=CONICAL_SURFACE('',#381,16.34555,1.30899688489888);
#44=FACE_OUTER_BOUND('',#60,.T.);
#45=FACE_OUTER_BOUND('',#61,.T.);
#46=FACE_OUTER_BOUND('',#62,.T.);
#47=FACE_OUTER_BOUND('',#63,.T.);
#48=FACE_OUTER_BOUND('',#65,.T.);
#49=FACE_OUTER_BOUND('',#66,.T.);
#50=FACE_OUTER_BOUND('',#68,.T.);
#51=FACE_OUTER_BOUND('',#69,.T.);
#52=FACE_OUTER_BOUND('',#70,.T.);
#53=FACE_OUTER_BOUND('',#71,.T.);
#54=FACE_OUTER_BOUND('',#72,.T.);
#55=FACE_OUTER_BOUND('',#74,.T.);
#56=FACE_OUTER_BOUND('',#75,.T.);
#57=FACE_OUTER_BOUND('',#77,.T.);
#58=FACE_OUTER_BOUND('',#78,.T.);
#59=FACE_OUTER_BOUND('',#79,.T.);
#60=EDGE_LOOP('',(#191,#192));
#61=EDGE_LOOP('',(#193,#194,#195,#196,#197,#198));
#62=EDGE_LOOP('',(#199,#200,#201,#202,#203,#204));
#63=EDGE_LOOP('',(#205,#206));
#64=EDGE_LOOP('',(#207,#208));
#65=EDGE_LOOP('',(#209,#210,#211,#212,#213,#214));
#66=EDGE_LOOP('',(#215,#216));
#67=EDGE_LOOP('',(#217,#218));
#68=EDGE_LOOP('',(#219,#220,#221,#222,#223,#224,#225));
#69=EDGE_LOOP('',(#226,#227,#228,#229,#230,#231,#232,#233));
#70=EDGE_LOOP('',(#234,#235,#236,#237,#238,#239,#240,#241));
#71=EDGE_LOOP('',(#242,#243,#244,#245,#246,#247,#248));
#72=EDGE_LOOP('',(#249,#250));
#73=EDGE_LOOP('',(#251,#252));
#74=EDGE_LOOP('',(#253,#254,#255,#256,#257,#258));
#75=EDGE_LOOP('',(#259,#260));
#76=EDGE_LOOP('',(#261,#262));
#77=EDGE_LOOP('',(#263,#264,#265,#266,#267,#268));
#78=EDGE_LOOP('',(#269,#270,#271,#272,#273,#274));
#79=EDGE_LOOP('',(#275,#276));
#80=CIRCLE('',#335,15.1);
#81=CIRCLE('',#336,15.1);
#82=CIRCLE('',#338,17.5);
#83=CIRCLE('',#339,17.5);
#84=CIRCLE('',#341,17.5);
#85=CIRCLE('',#342,17.5);
#86=CIRCLE('',#344,27.);
#87=CIRCLE('',#345,27.);
#88=CIRCLE('',#347,27.);
#89=CIRCLE('',#348,27.);
#90=CIRCLE('',#350,33.55);
#91=CIRCLE('',#351,33.55);
#92=CIRCLE('',#353,35.05);
#93=CIRCLE('',#354,35.05);
#94=CIRCLE('',#355,1.49999999999938);
#95=CIRCLE('',#356,35.05);
#96=CIRCLE('',#358,35.05);
#97=CIRCLE('',#359,35.05);
#98=CIRCLE('',#360,35.05);
#99=CIRCLE('',#362,32.418061982602);
#100=CIRCLE('',#363,32.418061982602);
#101=CIRCLE('',#364,4.00030734326376);
#102=CIRCLE('',#365,32.418061982602);
#103=CIRCLE('',#367,28.5);
#104=CIRCLE('',#368,28.5);
#105=CIRCLE('',#370,17.4225);
#106=CIRCLE('',#371,17.4225);
#107=CIRCLE('',#373,17.4225);
#108=CIRCLE('',#374,17.4225);
#109=CIRCLE('',#376,20.0776);
#110=CIRCLE('',#377,20.0776);
#111=CIRCLE('',#379,20.0776);
#112=CIRCLE('',#380,20.0776);
#113=CIRCLE('',#382,12.6135);
#114=CIRCLE('',#383,12.6135);
#115=VERTEX_POINT('',#499);
#116=VERTEX_POINT('',#500);
#117=VERTEX_POINT('',#504);
#118=VERTEX_POINT('',#505);
#119=VERTEX_POINT('',#510);
#120=VERTEX_POINT('',#511);
#121=VERTEX_POINT('',#516);
#122=VERTEX_POINT('',#517);
#123=VERTEX_POINT('',#521);
#124=VERTEX_POINT('',#522);
#125=VERTEX_POINT('',#527);
#126=VERTEX_POINT('',#528);
#127=VERTEX_POINT('',#532);
#128=VERTEX_POINT('',#533);
#129=VERTEX_POINT('',#535);
#130=VERTEX_POINT('',#540);
#131=VERTEX_POINT('',#541);
#132=VERTEX_POINT('',#543);
#133=VERTEX_POINT('',#548);
#134=VERTEX_POINT('',#549);
#135=VERTEX_POINT('',#551);
#136=VERTEX_POINT('',#556);
#137=VERTEX_POINT('',#557);
#138=VERTEX_POINT('',#562);
#139=VERTEX_POINT('',#563);
#140=VERTEX_POINT('',#567);
#141=VERTEX_POINT('',#568);
#142=VERTEX_POINT('',#573);
#143=VERTEX_POINT('',#574);
#144=VERTEX_POINT('',#578);
#145=VERTEX_POINT('',#579);
#146=VERTEX_POINT('',#584);
#147=VERTEX_POINT('',#585);
#148=EDGE_CURVE('',#115,#116,#80,.T.);
#149=EDGE_CURVE('',#116,#115,#81,.T.);
#150=EDGE_CURVE('',#117,#118,#82,.T.);
#151=EDGE_CURVE('',#118,#117,#83,.T.);
#152=EDGE_CURVE('',#118,#116,#25,.T.);
#153=EDGE_CURVE('',#119,#120,#84,.T.);
#154=EDGE_CURVE('',#120,#119,#85,.T.);
#155=EDGE_CURVE('',#120,#118,#26,.T.);
#156=EDGE_CURVE('',#121,#122,#86,.T.);
#157=EDGE_CURVE('',#122,#121,#87,.T.);
#158=EDGE_CURVE('',#123,#124,#88,.T.);
#159=EDGE_CURVE('',#124,#123,#89,.T.);
#160=EDGE_CURVE('',#124,#122,#27,.T.);
#161=EDGE_CURVE('',#125,#126,#90,.T.);
#162=EDGE_CURVE('',#126,#125,#91,.T.);
#163=EDGE_CURVE('',#127,#128,#92,.T.);
#164=EDGE_CURVE('',#129,#127,#93,.T.);
#165=EDGE_CURVE('',#129,#126,#94,.T.);
#166=EDGE_CURVE('',#128,#129,#95,.T.);
#167=EDGE_CURVE('',#130,#131,#96,.T.);
#168=EDGE_CURVE('',#132,#130,#97,.T.);
#169=EDGE_CURVE('',#131,#132,#98,.T.);
#170=EDGE_CURVE('',#131,#128,#28,.T.);
#171=EDGE_CURVE('',#133,#134,#99,.T.);
#172=EDGE_CURVE('',#135,#133,#100,.T.);
#173=EDGE_CURVE('',#135,#132,#101,.T.);
#174=EDGE_CURVE('',#134,#135,#102,.T.);
#175=EDGE_CURVE('',#136,#137,#103,.T.);
#176=EDGE_CURVE('',#137,#136,#104,.T.);
#177=EDGE_CURVE('',#137,#134,#29,.T.);
#178=EDGE_CURVE('',#138,#139,#105,.T.);
#179=EDGE_CURVE('',#139,#138,#106,.T.);
#180=EDGE_CURVE('',#140,#141,#107,.T.);
#181=EDGE_CURVE('',#141,#140,#108,.T.);
#182=EDGE_CURVE('',#141,#139,#30,.T.);
#183=EDGE_CURVE('',#142,#143,#109,.T.);
#184=EDGE_CURVE('',#143,#142,#110,.T.);
#185=EDGE_CURVE('',#144,#145,#111,.T.);
#186=EDGE_CURVE('',#145,#144,#112,.T.);
#187=EDGE_CURVE('',#145,#143,#31,.T.);
#188=EDGE_CURVE('',#146,#147,#113,.T.);
#189=EDGE_CURVE('',#147,#146,#114,.T.);
#190=EDGE_CURVE('',#147,#145,#32,.T.);
#191=ORIENTED_EDGE('',*,*,#148,.F.);
#192=ORIENTED_EDGE('',*,*,#149,.F.);
#193=ORIENTED_EDGE('',*,*,#150,.F.);
#194=ORIENTED_EDGE('',*,*,#151,.F.);
#195=ORIENTED_EDGE('',*,*,#152,.T.);
#196=ORIENTED_EDGE('',*,*,#149,.T.);
#197=ORIENTED_EDGE('',*,*,#148,.T.);
#198=ORIENTED_EDGE('',*,*,#152,.F.);
#199=ORIENTED_EDGE('',*,*,#153,.F.);
#200=ORIENTED_EDGE('',*,*,#154,.F.);
#201=ORIENTED_EDGE('',*,*,#155,.T.);
#202=ORIENTED_EDGE('',*,*,#151,.T.);
#203=ORIENTED_EDGE('',*,*,#150,.T.);
#204=ORIENTED_EDGE('',*,*,#155,.F.);
#205=ORIENTED_EDGE('',*,*,#156,.F.);
#206=ORIENTED_EDGE('',*,*,#157,.F.);
#207=ORIENTED_EDGE('',*,*,#153,.T.);
#208=ORIENTED_EDGE('',*,*,#154,.T.);
#209=ORIENTED_EDGE('',*,*,#158,.F.);
#210=ORIENTED_EDGE('',*,*,#159,.F.);
#211=ORIENTED_EDGE('',*,*,#160,.T.);
#212=ORIENTED_EDGE('',*,*,#157,.T.);
#213=ORIENTED_EDGE('',*,*,#156,.T.);
#214=ORIENTED_EDGE('',*,*,#160,.F.);
#215=ORIENTED_EDGE('',*,*,#161,.F.);
#216=ORIENTED_EDGE('',*,*,#162,.F.);
#217=ORIENTED_EDGE('',*,*,#158,.T.);
#218=ORIENTED_EDGE('',*,*,#159,.T.);
#219=ORIENTED_EDGE('',*,*,#163,.F.);
#220=ORIENTED_EDGE('',*,*,#164,.F.);
#221=ORIENTED_EDGE('',*,*,#165,.T.);
#222=ORIENTED_EDGE('',*,*,#162,.T.);
#223=ORIENTED_EDGE('',*,*,#161,.T.);
#224=ORIENTED_EDGE('',*,*,#165,.F.);
#225=ORIENTED_EDGE('',*,*,#166,.F.);
#226=ORIENTED_EDGE('',*,*,#167,.F.);
#227=ORIENTED_EDGE('',*,*,#168,.F.);
#228=ORIENTED_EDGE('',*,*,#169,.F.);
#229=ORIENTED_EDGE('',*,*,#170,.T.);
#230=ORIENTED_EDGE('',*,*,#166,.T.);
#231=ORIENTED_EDGE('',*,*,#164,.T.);
#232=ORIENTED_EDGE('',*,*,#163,.T.);
#233=ORIENTED_EDGE('',*,*,#170,.F.);
#234=ORIENTED_EDGE('',*,*,#171,.F.);
#235=ORIENTED_EDGE('',*,*,#172,.F.);
#236=ORIENTED_EDGE('',*,*,#173,.T.);
#237=ORIENTED_EDGE('',*,*,#168,.T.);
#238=ORIENTED_EDGE('',*,*,#167,.T.);
#239=ORIENTED_EDGE('',*,*,#169,.T.);
#240=ORIENTED_EDGE('',*,*,#173,.F.);
#241=ORIENTED_EDGE('',*,*,#174,.F.);
#242=ORIENTED_EDGE('',*,*,#175,.F.);
#243=ORIENTED_EDGE('',*,*,#176,.F.);
#244=ORIENTED_EDGE('',*,*,#177,.T.);
#245=ORIENTED_EDGE('',*,*,#174,.T.);
#246=ORIENTED_EDGE('',*,*,#172,.T.);
#247=ORIENTED_EDGE('',*,*,#171,.T.);
#248=ORIENTED_EDGE('',*,*,#177,.F.);
#249=ORIENTED_EDGE('',*,*,#175,.T.);
#250=ORIENTED_EDGE('',*,*,#176,.T.);
#251=ORIENTED_EDGE('',*,*,#178,.F.);
#252=ORIENTED_EDGE('',*,*,#179,.F.);
#253=ORIENTED_EDGE('',*,*,#180,.F.);
#254=ORIENTED_EDGE('',*,*,#181,.F.);
#255=ORIENTED_EDGE('',*,*,#182,.T.);
#256=ORIENTED_EDGE('',*,*,#179,.T.);
#257=ORIENTED_EDGE('',*,*,#178,.T.);
#258=ORIENTED_EDGE('',*,*,#182,.F.);
#259=ORIENTED_EDGE('',*,*,#183,.F.);
#260=ORIENTED_EDGE('',*,*,#184,.F.);
#261=ORIENTED_EDGE('',*,*,#180,.T.);
#262=ORIENTED_EDGE('',*,*,#181,.T.);
#263=ORIENTED_EDGE('',*,*,#185,.F.);
#264=ORIENTED_EDGE('',*,*,#186,.F.);
#265=ORIENTED_EDGE('',*,*,#187,.T.);
#266=ORIENTED_EDGE('',*,*,#184,.T.);
#267=ORIENTED_EDGE('',*,*,#183,.T.);
#268=ORIENTED_EDGE('',*,*,#187,.F.);
#269=ORIENTED_EDGE('',*,*,#188,.F.);
#270=ORIENTED_EDGE('',*,*,#189,.F.);
#271=ORIENTED_EDGE('',*,*,#190,.T.);
#272=ORIENTED_EDGE('',*,*,#186,.T.);
#273=ORIENTED_EDGE('',*,*,#185,.T.);
#274=ORIENTED_EDGE('',*,*,#190,.F.);
#275=ORIENTED_EDGE('',*,*,#188,.T.);
#276=ORIENTED_EDGE('',*,*,#189,.T.);
#277=PLANE('',#334);
#278=PLANE('',#343);
#279=PLANE('',#349);
#280=PLANE('',#369);
#281=PLANE('',#375);
#282=PLANE('',#384);
#283=STYLED_ITEM('',(#610),#298);
#284=STYLED_ITEM('',(#610),#299);
#285=STYLED_ITEM('',(#610),#300);
#286=STYLED_ITEM('',(#610),#301);
#287=STYLED_ITEM('',(#610),#302);
#288=STYLED_ITEM('',(#610),#303);
#289=STYLED_ITEM('',(#610),#304);
#290=STYLED_ITEM('',(#610),#305);
#291=STYLED_ITEM('',(#610),#306);
#292=STYLED_ITEM('',(#610),#307);
#293=STYLED_ITEM('',(#610),#308);
#294=STYLED_ITEM('',(#611),#311);
#295=STYLED_ITEM('',(#611),#312);
#296=STYLED_ITEM('',(#611),#313);
#297=STYLED_ITEM('',(#609),#13);
#298=ADVANCED_FACE('',(#44),#277,.T.);
#299=ADVANCED_FACE('',(#45),#41,.T.);
#300=ADVANCED_FACE('',(#46),#20,.T.);
#301=ADVANCED_FACE('',(#47,#16),#278,.T.);
#302=ADVANCED_FACE('',(#48),#21,.T.);
#303=ADVANCED_FACE('',(#49,#17),#279,.T.);
#304=ADVANCED_FACE('',(#50),#14,.T.);
#305=ADVANCED_FACE('',(#51),#22,.T.);
#306=ADVANCED_FACE('',(#52),#15,.T.);
#307=ADVANCED_FACE('',(#53),#42,.T.);
#308=ADVANCED_FACE('',(#54,#18),#280,.T.);
#309=ADVANCED_FACE('',(#55),#23,.T.);
#310=ADVANCED_FACE('',(#56,#19),#281,.T.);
#311=ADVANCED_FACE('',(#57),#24,.T.);
#312=ADVANCED_FACE('',(#58),#43,.T.);
#313=ADVANCED_FACE('',(#59),#282,.T.);
#314=CLOSED_SHELL('',(#298,#299,#300,#301,#302,#303,#304,#305,#306,#307,
#308,#309,#310,#311,#312,#313));
#315=DERIVED_UNIT_ELEMENT(#317,1.);
#316=DERIVED_UNIT_ELEMENT(#595,3.);
#317=(
MASS_UNIT()
NAMED_UNIT(*)
SI_UNIT($,.GRAM.)
);
#318=DERIVED_UNIT((#315,#316));
#319=MEASURE_REPRESENTATION_ITEM('density measure',
POSITIVE_RATIO_MEASURE(7.75),#318);
#320=PROPERTY_DEFINITION_REPRESENTATION(#325,#322);
#321=PROPERTY_DEFINITION_REPRESENTATION(#326,#323);
#322=REPRESENTATION('material name',(#324),#592);
#323=REPRESENTATION('density',(#319),#592);
#324=DESCRIPTIVE_REPRESENTATION_ITEM('X 5 Cr Ni 18.9 (1.4301)',
'X 5 Cr Ni 18.9 (1.4301)');
#325=PROPERTY_DEFINITION('material property','material name',#602);
#326=PROPERTY_DEFINITION('material property','density of part',#602);
#327=DATE_TIME_ROLE('creation_date');
#328=APPLIED_DATE_AND_TIME_ASSIGNMENT(#329,#327,(#602));
#329=DATE_AND_TIME(#330,#331);
#330=CALENDAR_DATE(2009,20,11);
#331=LOCAL_TIME(9,53,4.,#332);
#332=COORDINATED_UNIVERSAL_TIME_OFFSET(0,0,.BEHIND.);
#333=AXIS2_PLACEMENT_3D('placement',#497,#385,#386);
#334=AXIS2_PLACEMENT_3D('',#498,#387,#388);
#335=AXIS2_PLACEMENT_3D('',#501,#389,#390);
#336=AXIS2_PLACEMENT_3D('',#502,#391,#392);
#337=AXIS2_PLACEMENT_3D('',#503,#393,#394);
#338=AXIS2_PLACEMENT_3D('',#506,#395,#396);
#339=AXIS2_PLACEMENT_3D('',#507,#397,#398);
#340=AXIS2_PLACEMENT_3D('',#509,#400,#401);
#341=AXIS2_PLACEMENT_3D('',#512,#402,#403);
#342=AXIS2_PLACEMENT_3D('',#513,#404,#405);
#343=AXIS2_PLACEMENT_3D('',#515,#407,#408);
#344=AXIS2_PLACEMENT_3D('',#518,#409,#410);
#345=AXIS2_PLACEMENT_3D('',#519,#411,#412);
#346=AXIS2_PLACEMENT_3D('',#520,#413,#414);
#347=AXIS2_PLACEMENT_3D('',#523,#415,#416);
#348=AXIS2_PLACEMENT_3D('',#524,#417,#418);
#349=AXIS2_PLACEMENT_3D('',#526,#420,#421);
#350=AXIS2_PLACEMENT_3D('',#529,#422,#423);
#351=AXIS2_PLACEMENT_3D('',#530,#424,#425);
#352=AXIS2_PLACEMENT_3D('',#531,#426,#427);
#353=AXIS2_PLACEMENT_3D('',#534,#428,#429);
#354=AXIS2_PLACEMENT_3D('',#536,#430,#431);
#355=AXIS2_PLACEMENT_3D('',#537,#432,#433);
#356=AXIS2_PLACEMENT_3D('',#538,#434,#435);
#357=AXIS2_PLACEMENT_3D('',#539,#436,#437);
#358=AXIS2_PLACEMENT_3D('',#542,#438,#439);
#359=AXIS2_PLACEMENT_3D('',#544,#440,#441);
#360=AXIS2_PLACEMENT_3D('',#545,#442,#443);
#361=AXIS2_PLACEMENT_3D('',#547,#445,#446);
#362=AXIS2_PLACEMENT_3D('',#550,#447,#448);
#363=AXIS2_PLACEMENT_3D('',#552,#449,#450);
#364=AXIS2_PLACEMENT_3D('',#553,#451,#452);
#365=AXIS2_PLACEMENT_3D('',#554,#453,#454);
#366=AXIS2_PLACEMENT_3D('',#555,#455,#456);
#367=AXIS2_PLACEMENT_3D('',#558,#457,#458);
#368=AXIS2_PLACEMENT_3D('',#559,#459,#460);
#369=AXIS2_PLACEMENT_3D('',#561,#462,#463);
#370=AXIS2_PLACEMENT_3D('',#564,#464,#465);
#371=AXIS2_PLACEMENT_3D('',#565,#466,#467);
#372=AXIS2_PLACEMENT_3D('',#566,#468,#469);
#373=AXIS2_PLACEMENT_3D('',#569,#470,#471);
#374=AXIS2_PLACEMENT_3D('',#570,#472,#473);
#375=AXIS2_PLACEMENT_3D('',#572,#475,#476);
#376=AXIS2_PLACEMENT_3D('',#575,#477,#478);
#377=AXIS2_PLACEMENT_3D('',#576,#479,#480);
#378=AXIS2_PLACEMENT_3D('',#577,#481,#482);
#379=AXIS2_PLACEMENT_3D('',#580,#483,#484);
#380=AXIS2_PLACEMENT_3D('',#581,#485,#486);
#381=AXIS2_PLACEMENT_3D('',#583,#488,#489);
#382=AXIS2_PLACEMENT_3D('',#586,#490,#491);
#383=AXIS2_PLACEMENT_3D('',#587,#492,#493);
#384=AXIS2_PLACEMENT_3D('',#589,#495,#496);
#385=DIRECTION('axis',(0.,0.,1.));
#386=DIRECTION('refdir',(1.,0.,0.));
#387=DIRECTION('center_axis',(-1.,-4.69658311084521E-16,0.));
#388=DIRECTION('ref_axis',(0.,0.,1.));
#389=DIRECTION('center_axis',(1.,4.69658311084521E-16,0.));
#390=DIRECTION('ref_axis',(0.,-1.,0.));
#391=DIRECTION('center_axis',(1.,4.69658311084521E-16,0.));
#392=DIRECTION('ref_axis',(0.,-1.,0.));
#393=DIRECTION('center_axis',(1.,4.69658311084521E-16,0.));
#394=DIRECTION('ref_axis',(0.,-1.,0.));
#395=DIRECTION('center_axis',(1.,4.69658311084521E-16,0.));
#396=DIRECTION('ref_axis',(0.,-1.,0.));
#397=DIRECTION('center_axis',(1.,4.69658311084521E-16,0.));
#398=DIRECTION('ref_axis',(0.,-1.,0.));
#399=DIRECTION('',(-0.857492925712544,-0.514495755427527,-6.3007558005922E-17));
#400=DIRECTION('center_axis',(1.,4.69658311084521E-16,0.));
#401=DIRECTION('ref_axis',(0.,-1.,0.));
#402=DIRECTION('center_axis',(1.,4.69658311084521E-16,0.));
#403=DIRECTION('ref_axis',(0.,-1.,0.));
#404=DIRECTION('center_axis',(1.,4.69658311084521E-16,0.));
#405=DIRECTION('ref_axis',(0.,-1.,0.));
#406=DIRECTION('',(-1.,-4.69658311084521E-16,0.));
#407=DIRECTION('center_axis',(-1.,-4.69658311084521E-16,0.));
#408=DIRECTION('ref_axis',(0.,0.,1.));
#409=DIRECTION('center_axis',(1.,4.69658311084521E-16,0.));
#410=DIRECTION('ref_axis',(0.,-1.,0.));
#411=DIRECTION('center_axis',(1.,4.69658311084521E-16,0.));
#412=DIRECTION('ref_axis',(0.,-1.,0.));
#413=DIRECTION('center_axis',(1.,4.69658311084521E-16,0.));
#414=DIRECTION('ref_axis',(0.,-1.,0.));
#415=DIRECTION('center_axis',(1.,4.69658311084521E-16,0.));
#416=DIRECTION('ref_axis',(0.,-1.,0.));
#417=DIRECTION('center_axis',(1.,4.69658311084521E-16,0.));
#418=DIRECTION('ref_axis',(0.,-1.,0.));
#419=DIRECTION('',(-1.,-4.69658311084521E-16,0.));
#420=DIRECTION('center_axis',(-1.,-4.69658311084521E-16,0.));
#421=DIRECTION('ref_axis',(0.,0.,1.));
#422=DIRECTION('center_axis',(1.,4.69658311084521E-16,0.));
#423=DIRECTION('ref_axis',(0.,-1.,0.));
#424=DIRECTION('center_axis',(1.,4.69658311084521E-16,0.));
#425=DIRECTION('ref_axis',(0.,-1.,0.));
#426=DIRECTION('center_axis',(1.,4.69658311084521E-16,0.));
#427=DIRECTION('ref_axis',(0.,0.,-1.));
#428=DIRECTION('center_axis',(1.,4.69658311084521E-16,0.));
#429=DIRECTION('ref_axis',(0.,-1.,0.));
#430=DIRECTION('center_axis',(1.,4.69658311084521E-16,0.));
#431=DIRECTION('ref_axis',(0.,-1.,0.));
#432=DIRECTION('center_axis',(4.69658311084521E-16,-1.,-1.22464679914735E-16));
#433=DIRECTION('ref_axis',(0.,-1.22464679914735E-16,1.));
#434=DIRECTION('center_axis',(1.,4.69658311084521E-16,0.));
#435=DIRECTION('ref_axis',(0.,-1.,0.));
#436=DIRECTION('center_axis',(1.,4.69658311084521E-16,0.));
#437=DIRECTION('ref_axis',(0.,-1.,0.));
#438=DIRECTION('center_axis',(1.,4.69658311084521E-16,0.));
#439=DIRECTION('ref_axis',(0.,-1.,0.));
#440=DIRECTION('center_axis',(1.,4.69658311084521E-16,0.));
#441=DIRECTION('ref_axis',(0.,-1.,0.));
#442=DIRECTION('center_axis',(1.,4.69658311084521E-16,0.));
#443=DIRECTION('ref_axis',(0.,-1.,0.));
#444=DIRECTION('',(-1.,-4.69658311084521E-16,0.));
#445=DIRECTION('center_axis',(1.,4.69658311084521E-16,0.));
#446=DIRECTION('ref_axis',(0.,0.,-1.));
#447=DIRECTION('center_axis',(1.,4.69658311084521E-16,0.));
#448=DIRECTION('ref_axis',(0.,-1.,0.));
#449=DIRECTION('center_axis',(1.,4.69658311084521E-16,0.));
#450=DIRECTION('ref_axis',(0.,-1.,0.));
#451=DIRECTION('center_axis',(4.69658311084521E-16,-1.,-1.22464679914735E-16));
#452=DIRECTION('ref_axis',(0.,-1.22464679914735E-16,1.));
#453=DIRECTION('center_axis',(1.,4.69658311084521E-16,0.));
#454=DIRECTION('ref_axis',(0.,-1.,0.));
#455=DIRECTION('center_axis',(-1.,-4.69658311084521E-16,0.));
#456=DIRECTION('ref_axis',(0.,-1.,0.));
#457=DIRECTION('center_axis',(1.,4.69658311084521E-16,0.));
#458=DIRECTION('ref_axis',(0.,-1.,0.));
#459=DIRECTION('center_axis',(1.,4.69658311084521E-16,0.));
#460=DIRECTION('ref_axis',(0.,-1.,0.));
#461=DIRECTION('',(-0.342029995124457,0.93968903496591,1.15078716886487E-16));
#462=DIRECTION('center_axis',(1.,4.69658311084521E-16,0.));
#463=DIRECTION('ref_axis',(0.,0.,-1.));
#464=DIRECTION('center_axis',(1.,4.69658311084521E-16,0.));
#465=DIRECTION('ref_axis',(0.,-1.,0.));
#466=DIRECTION('center_axis',(1.,4.69658311084521E-16,0.));
#467=DIRECTION('ref_axis',(0.,-1.,0.));
#468=DIRECTION('center_axis',(1.,4.69658311084521E-16,0.));
#469=DIRECTION('ref_axis',(0.,-1.,0.));
#470=DIRECTION('center_axis',(1.,4.69658311084521E-16,0.));
#471=DIRECTION('ref_axis',(0.,-1.,0.));
#472=DIRECTION('center_axis',(1.,4.69658311084521E-16,0.));
#473=DIRECTION('ref_axis',(0.,-1.,0.));
#474=DIRECTION('',(-1.,-4.69658311084521E-16,0.));
#475=DIRECTION('center_axis',(-1.,-4.69658311084521E-16,0.));
#476=DIRECTION('ref_axis',(0.,0.,1.));
#477=DIRECTION('center_axis',(1.,4.69658311084521E-16,0.));
#478=DIRECTION('ref_axis',(0.,-1.,0.));
#479=DIRECTION('center_axis',(1.,4.69658311084521E-16,0.));
#480=DIRECTION('ref_axis',(0.,-1.,0.));
#481=DIRECTION('center_axis',(1.,4.69658311084521E-16,0.));
#482=DIRECTION('ref_axis',(0.,-1.,0.));
#483=DIRECTION('center_axis',(1.,4.69658311084521E-16,0.));
#484=DIRECTION('ref_axis',(0.,-1.,0.));
#485=DIRECTION('center_axis',(1.,4.69658311084521E-16,0.));
#486=DIRECTION('ref_axis',(0.,-1.,0.));
#487=DIRECTION('',(-1.,-4.69658311084521E-16,0.));
#488=DIRECTION('center_axis',(-1.,-4.69658311084521E-16,0.));
#489=DIRECTION('ref_axis',(0.,-1.,0.));
#490=DIRECTION('center_axis',(1.,4.69658311084521E-16,0.));
#491=DIRECTION('ref_axis',(0.,-1.,0.));
#492=DIRECTION('center_axis',(1.,4.69658311084521E-16,0.));
#493=DIRECTION('ref_axis',(0.,-1.,0.));
#494=DIRECTION('',(-0.258819097356082,0.965925812287767,1.18291795423202E-16));
#495=DIRECTION('center_axis',(1.,4.69658311084521E-16,0.));
#496=DIRECTION('ref_axis',(0.,0.,-1.));
#497=CARTESIAN_POINT('',(0.,0.,0.));
#498=CARTESIAN_POINT('Origin',(-8.,-7.55000000000001,0.));
#499=CARTESIAN_POINT('',(-8.,-15.1,0.));
#500=CARTESIAN_POINT('',(-8.00000000000001,15.0999999999999,1.8492166667125E-15));
#501=CARTESIAN_POINT('Origin',(-8.00000000000001,-2.2543598932057E-14,0.));
#502=CARTESIAN_POINT('Origin',(-8.00000000000001,-2.2543598932057E-14,0.));
#503=CARTESIAN_POINT('Origin',(-6.00000000000001,-2.1604282309888E-14,0.));
#504=CARTESIAN_POINT('',(-4.,-17.5,0.));
#505=CARTESIAN_POINT('',(-4.00000000000001,17.5,2.14313189850787E-15));
#506=CARTESIAN_POINT('Origin',(-4.00000000000001,-2.06649656877189E-14,
0.));
#507=CARTESIAN_POINT('Origin',(-4.00000000000001,-2.06649656877189E-14,
0.));
#508=CARTESIAN_POINT('',(-6.00000000000001,16.3,1.99617428261018E-15));
#509=CARTESIAN_POINT('Origin',(-2.00000000000001,-1.97256490655499E-14,
0.));
#510=CARTESIAN_POINT('',(0.,-17.5,0.));
#511=CARTESIAN_POINT('',(-5.55111512312578E-16,17.5,2.14313189850787E-15));
#512=CARTESIAN_POINT('Origin',(-8.88178419700125E-15,-1.87863324433808E-14,
0.));
#513=CARTESIAN_POINT('Origin',(-8.88178419700125E-15,-1.87863324433808E-14,
0.));
#514=CARTESIAN_POINT('',(-2.00000000000001,17.5,2.14313189850787E-15));
#515=CARTESIAN_POINT('Origin',(0.,-22.25,0.));
#516=CARTESIAN_POINT('',(0.,-27.,0.));
#517=CARTESIAN_POINT('',(-2.1094237467878E-14,27.,3.30654635769785E-15));
#518=CARTESIAN_POINT('Origin',(-8.88178419700125E-15,-1.87863324433808E-14,
0.));
#519=CARTESIAN_POINT('Origin',(-8.88178419700125E-15,-1.87863324433808E-14,
0.));
#520=CARTESIAN_POINT('Origin',(5.24999999999999,-1.63206263101871E-14,0.));
#521=CARTESIAN_POINT('',(10.5,-27.,0.));
#522=CARTESIAN_POINT('',(10.5,27.,3.30654635769785E-15));
#523=CARTESIAN_POINT('Origin',(10.5,-1.38549201769934E-14,0.));
#524=CARTESIAN_POINT('Origin',(10.5,-1.38549201769934E-14,0.));
#525=CARTESIAN_POINT('',(5.24999999999999,27.,3.30654635769785E-15));
#526=CARTESIAN_POINT('Origin',(10.5,-30.275,0.));
#527=CARTESIAN_POINT('',(10.5,-33.55,0.));
#528=CARTESIAN_POINT('',(10.5,-1.81358537732677E-14,33.55));
#529=CARTESIAN_POINT('Origin',(10.5,-1.38549201769934E-14,0.));
#530=CARTESIAN_POINT('Origin',(10.5,-1.38549201769934E-14,0.));
#531=CARTESIAN_POINT('Origin',(11.9999999999994,-1.33226762955019E-14,0.));
#532=CARTESIAN_POINT('',(12.,-35.05,0.));
#533=CARTESIAN_POINT('',(12.,35.05,4.29238703101147E-15));
#534=CARTESIAN_POINT('Origin',(12.,-1.31504327103666E-14,0.));
#535=CARTESIAN_POINT('',(12.,-1.76150633265131E-14,35.05));
#536=CARTESIAN_POINT('Origin',(12.,-1.31504327103666E-14,0.));
#537=CARTESIAN_POINT('Origin',(11.9999999999994,-1.74313663066413E-14,33.5500000000006));
#538=CARTESIAN_POINT('Origin',(12.,-1.31504327103666E-14,0.));
#539=CARTESIAN_POINT('Origin',(20.1575,-9.31919503769461E-15,0.));
#540=CARTESIAN_POINT('',(28.315,-35.05,0.));
#541=CARTESIAN_POINT('',(28.315,35.05,4.29238703101147E-15));
#542=CARTESIAN_POINT('Origin',(28.315,-5.48795736502263E-15,0.));
#543=CARTESIAN_POINT('',(28.315,-8.73323361686909E-15,35.05));
#544=CARTESIAN_POINT('Origin',(28.315,-5.48795736502263E-15,0.));
#545=CARTESIAN_POINT('Origin',(28.315,-5.48795736502263E-15,0.));
#546=CARTESIAN_POINT('',(20.1575,35.05,4.29238703101147E-15));
#547=CARTESIAN_POINT('Origin',(28.314903094139,-4.44089209850063E-15,0.));
#548=CARTESIAN_POINT('',(32.073895543162,-32.418061982602,0.));
#549=CARTESIAN_POINT('',(32.073895543162,32.418061982602,3.97006758415541E-15));
#550=CARTESIAN_POINT('Origin',(32.073895543162,-3.72256083267803E-15,0.));
#551=CARTESIAN_POINT('',(32.073895543162,-6.64551763766842E-15,32.418061982602));
#552=CARTESIAN_POINT('Origin',(32.073895543162,-3.72256083267803E-15,0.));
#553=CARTESIAN_POINT('Origin',(28.314903094139,-8.24338277130248E-15,31.04969265791));
#554=CARTESIAN_POINT('Origin',(32.073895543162,-3.72256083267803E-15,0.));
#555=CARTESIAN_POINT('Origin',(32.786947771581,-3.38766992736371E-15,0.));
#556=CARTESIAN_POINT('',(33.5,-28.5,0.));
#557=CARTESIAN_POINT('',(33.5,28.5,3.49024337756996E-15));
#558=CARTESIAN_POINT('Origin',(33.5,-3.05277902204939E-15,0.));
#559=CARTESIAN_POINT('Origin',(33.5,-3.05277902204939E-15,0.));
#560=CARTESIAN_POINT('',(32.786947771581,30.459030991301,3.73015548086268E-15));
#561=CARTESIAN_POINT('Origin',(33.5,-22.96125,0.));
#562=CARTESIAN_POINT('',(33.5,-17.4225,0.));
#563=CARTESIAN_POINT('',(33.5,17.4225,2.13364088581448E-15));
#564=CARTESIAN_POINT('Origin',(33.5,-3.05277902204939E-15,0.));
#565=CARTESIAN_POINT('Origin',(33.5,-3.05277902204939E-15,0.));
#566=CARTESIAN_POINT('Origin',(33.75,-2.93536444427826E-15,0.));
#567=CARTESIAN_POINT('',(34.,-17.4225,0.));
#568=CARTESIAN_POINT('',(34.,17.4225,2.13364088581448E-15));
#569=CARTESIAN_POINT('Origin',(34.,-2.81794986650713E-15,0.));
#570=CARTESIAN_POINT('Origin',(34.,-2.81794986650713E-15,0.));
#571=CARTESIAN_POINT('',(33.75,17.4225,2.13364088581448E-15));
#572=CARTESIAN_POINT('Origin',(34.,-18.75005,0.));
#573=CARTESIAN_POINT('',(34.,-20.0776,0.));
#574=CARTESIAN_POINT('',(34.,20.0776,2.45879685745609E-15));
#575=CARTESIAN_POINT('Origin',(34.,-2.81794986650713E-15,0.));
#576=CARTESIAN_POINT('Origin',(34.,-2.81794986650713E-15,0.));
#577=CARTESIAN_POINT('Origin',(36.,-1.87863324433809E-15,0.));
#578=CARTESIAN_POINT('',(38.,-20.0776,0.));
#579=CARTESIAN_POINT('',(38.,20.0776,2.45879685745609E-15));
#580=CARTESIAN_POINT('Origin',(38.,-9.39316622169045E-16,0.));
#581=CARTESIAN_POINT('Origin',(38.,-9.39316622169045E-16,0.));
#582=CARTESIAN_POINT('',(36.,20.0776,2.45879685745609E-15));
#583=CARTESIAN_POINT('Origin',(39.,-4.69658311084523E-16,0.));
#584=CARTESIAN_POINT('',(40.,-12.6135,0.));
#585=CARTESIAN_POINT('',(40.,12.6135,1.54470824010451E-15));
#586=CARTESIAN_POINT('Origin',(40.,-2.78227232309544E-30,0.));
#587=CARTESIAN_POINT('Origin',(40.,-2.78227232309544E-30,0.));
#588=CARTESIAN_POINT('',(39.,16.34555,2.0017525487803E-15));
#589=CARTESIAN_POINT('Origin',(40.,-6.30675,0.));
#590=UNCERTAINTY_MEASURE_WITH_UNIT(LENGTH_MEASURE(0.01),#594,
'DISTANCE_ACCURACY_VALUE',
'Maximum model space distance between geometric entities at asserted c
onnectivities');
#591=UNCERTAINTY_MEASURE_WITH_UNIT(LENGTH_MEASURE(0.01),#594,
'DISTANCE_ACCURACY_VALUE',
'Maximum model space distance between geometric entities at asserted c
onnectivities');
#592=(
GEOMETRIC_REPRESENTATION_CONTEXT(3)
GLOBAL_UNCERTAINTY_ASSIGNED_CONTEXT((#590))
GLOBAL_UNIT_ASSIGNED_CONTEXT((#594,#596,#597))
REPRESENTATION_CONTEXT('','3D')
);
#593=(
GEOMETRIC_REPRESENTATION_CONTEXT(3)
GLOBAL_UNCERTAINTY_ASSIGNED_CONTEXT((#591))
GLOBAL_UNIT_ASSIGNED_CONTEXT((#594,#596,#597))
REPRESENTATION_CONTEXT('','3D')
);
#594=(
LENGTH_UNIT()
NAMED_UNIT(*)
SI_UNIT(.MILLI.,.METRE.)
);
#595=(
LENGTH_UNIT()
NAMED_UNIT(*)
SI_UNIT(.CENTI.,.METRE.)
);
#596=(
NAMED_UNIT(*)
PLANE_ANGLE_UNIT()
SI_UNIT($,.RADIAN.)
);
#597=(
NAMED_UNIT(*)
SI_UNIT($,.STERADIAN.)
SOLID_ANGLE_UNIT()
);
#598=SHAPE_DEFINITION_REPRESENTATION(#599,#600);
#599=PRODUCT_DEFINITION_SHAPE('',$,#602);
#600=SHAPE_REPRESENTATION('',(#333),#592);
#601=PRODUCT_DEFINITION_CONTEXT('part definition',#606,'design');
#602=PRODUCT_DEFINITION('TR 070.0390','TR 070.0390',#603,#601);
#603=PRODUCT_DEFINITION_FORMATION('',$,#608);
#604=PRODUCT_RELATED_PRODUCT_CATEGORY('TR 070.0390','TR 070.0390',(#608));
#605=APPLICATION_PROTOCOL_DEFINITION('international standard',
'automotive_design',2009,#606);
#606=APPLICATION_CONTEXT(
'Core Data for Automotive Mechanical Design Process');
#607=PRODUCT_CONTEXT('part definition',#606,'mechanical');
#608=PRODUCT('TR 070.0390','TR 070.0390','Tigerrolle Edelstahl',(#607));
#609=PRESENTATION_STYLE_ASSIGNMENT((#612));
#610=PRESENTATION_STYLE_ASSIGNMENT((#613));
#611=PRESENTATION_STYLE_ASSIGNMENT((#614));
#612=SURFACE_STYLE_USAGE(.BOTH.,#621);
#613=SURFACE_STYLE_USAGE(.BOTH.,#622);
#614=SURFACE_STYLE_USAGE(.BOTH.,#623);
#615=SURFACE_STYLE_RENDERING_WITH_PROPERTIES($,#633,(#618));
#616=SURFACE_STYLE_RENDERING_WITH_PROPERTIES($,#634,(#619));
#617=SURFACE_STYLE_RENDERING_WITH_PROPERTIES($,#635,(#620));
#618=SURFACE_STYLE_TRANSPARENT(0.);
#619=SURFACE_STYLE_TRANSPARENT(0.);
#620=SURFACE_STYLE_TRANSPARENT(0.);
#621=SURFACE_SIDE_STYLE('',(#624,#615));
#622=SURFACE_SIDE_STYLE('',(#625,#616));
#623=SURFACE_SIDE_STYLE('',(#626,#617));
#624=SURFACE_STYLE_FILL_AREA(#627);
#625=SURFACE_STYLE_FILL_AREA(#628);
#626=SURFACE_STYLE_FILL_AREA(#629);
#627=FILL_AREA_STYLE('',(#630));
#628=FILL_AREA_STYLE('',(#631));
#629=FILL_AREA_STYLE('',(#632));
#630=FILL_AREA_STYLE_COLOUR('',#633);
#631=FILL_AREA_STYLE_COLOUR('',#634);
#632=FILL_AREA_STYLE_COLOUR('',#635);
#633=COLOUR_RGB('',0.87843137254902,0.874509803921569,0.858823529411765);
#634=COLOUR_RGB('',0.956862745098039,0.956862745098039,0.956862745098039);
#635=COLOUR_RGB('',0.47843137254902,0.490196078431373,0.501960784313725);
ENDSEC;
END-ISO-10303-21;
