ISO-10303-21;
HEADER;
/* Generated by software containing ST-Developer
 * from STEP Tools, Inc. (www.steptools.com) 
 */

FILE_DESCRIPTION(
/* description */ ('U-F\X\FChrungsprofil'),
/* implementation_level */ '2;1');

FILE_NAME(
/* name */ 
'C:\\VAULT_WORKSPACE\\Projekte\\Werksnorm\\Profile\\UP xxx.0730\\UP040
-0730.stp',
/* time_stamp */ '2021-02-08T14:22:03+01:00',
/* author */ ('kstaebler'),
/* organization */ (''),
/* preprocessor_version */ 'ST-DEVELOPER v18.1',
/* originating_system */ 'Autodesk Inventor 2020',
/* authorisation */ '');

FILE_SCHEMA (('AUTOMOTIVE_DESIGN { 1 0 10303 214 3 1 1 }'));
ENDSEC;

DATA;
#10=MECHANICAL_DESIGN_GEOMETRIC_PRESENTATION_REPRESENTATION('',(#13),#461);
#11=SHAPE_REPRESENTATION_RELATIONSHIP('SRR','None',#468,#12);
#12=ADVANCED_BREP_SHAPE_REPRESENTATION('',(#14),#460);
#13=STYLED_ITEM('',(#477),#14);
#14=MANIFOLD_SOLID_BREP('Volumenk\X\F6rper1',#267);
#15=CIRCLE('',#291,4.);
#16=CIRCLE('',#292,4.);
#17=CIRCLE('',#294,8.);
#18=CIRCLE('',#295,8.);
#19=CIRCLE('',#298,4.);
#20=CIRCLE('',#299,8.);
#21=CIRCLE('',#304,4.);
#22=CIRCLE('',#306,8.);
#23=CYLINDRICAL_SURFACE('',#290,4.);
#24=CYLINDRICAL_SURFACE('',#293,8.);
#25=CYLINDRICAL_SURFACE('',#303,4.);
#26=CYLINDRICAL_SURFACE('',#305,8.);
#27=FACE_OUTER_BOUND('',#41,.T.);
#28=FACE_OUTER_BOUND('',#42,.T.);
#29=FACE_OUTER_BOUND('',#43,.T.);
#30=FACE_OUTER_BOUND('',#44,.T.);
#31=FACE_OUTER_BOUND('',#45,.T.);
#32=FACE_OUTER_BOUND('',#46,.T.);
#33=FACE_OUTER_BOUND('',#47,.T.);
#34=FACE_OUTER_BOUND('',#48,.T.);
#35=FACE_OUTER_BOUND('',#49,.T.);
#36=FACE_OUTER_BOUND('',#50,.T.);
#37=FACE_OUTER_BOUND('',#51,.T.);
#38=FACE_OUTER_BOUND('',#52,.T.);
#39=FACE_OUTER_BOUND('',#53,.T.);
#40=FACE_OUTER_BOUND('',#54,.T.);
#41=EDGE_LOOP('',(#171,#172,#173,#174));
#42=EDGE_LOOP('',(#175,#176,#177,#178));
#43=EDGE_LOOP('',(#179,#180,#181,#182));
#44=EDGE_LOOP('',(#183,#184,#185,#186));
#45=EDGE_LOOP('',(#187,#188,#189,#190));
#46=EDGE_LOOP('',(#191,#192,#193,#194));
#47=EDGE_LOOP('',(#195,#196,#197,#198,#199,#200,#201,#202,#203,#204,#205,
#206));
#48=EDGE_LOOP('',(#207,#208,#209,#210));
#49=EDGE_LOOP('',(#211,#212,#213,#214));
#50=EDGE_LOOP('',(#215,#216,#217,#218));
#51=EDGE_LOOP('',(#219,#220,#221,#222));
#52=EDGE_LOOP('',(#223,#224,#225,#226));
#53=EDGE_LOOP('',(#227,#228,#229,#230));
#54=EDGE_LOOP('',(#231,#232,#233,#234,#235,#236,#237,#238,#239,#240,#241,
#242));
#55=LINE('',#387,#83);
#56=LINE('',#389,#84);
#57=LINE('',#391,#85);
#58=LINE('',#392,#86);
#59=LINE('',#396,#87);
#60=LINE('',#397,#88);
#61=LINE('',#398,#89);
#62=LINE('',#402,#90);
#63=LINE('',#403,#91);
#64=LINE('',#404,#92);
#65=LINE('',#409,#93);
#66=LINE('',#415,#94);
#67=LINE('',#419,#95);
#68=LINE('',#421,#96);
#69=LINE('',#422,#97);
#70=LINE('',#425,#98);
#71=LINE('',#429,#99);
#72=LINE('',#431,#100);
#73=LINE('',#433,#101);
#74=LINE('',#437,#102);
#75=LINE('',#439,#103);
#76=LINE('',#440,#104);
#77=LINE('',#443,#105);
#78=LINE('',#444,#106);
#79=LINE('',#447,#107);
#80=LINE('',#448,#108);
#81=LINE('',#451,#109);
#82=LINE('',#456,#110);
#83=VECTOR('',#313,10.);
#84=VECTOR('',#314,10.);
#85=VECTOR('',#315,10.);
#86=VECTOR('',#316,10.);
#87=VECTOR('',#319,10.);
#88=VECTOR('',#320,10.);
#89=VECTOR('',#321,10.);
#90=VECTOR('',#324,10.);
#91=VECTOR('',#325,10.);
#92=VECTOR('',#326,10.);
#93=VECTOR('',#331,10.);
#94=VECTOR('',#338,10.);
#95=VECTOR('',#343,10.);
#96=VECTOR('',#344,10.);
#97=VECTOR('',#345,10.);
#98=VECTOR('',#348,10.);
#99=VECTOR('',#351,10.);
#100=VECTOR('',#352,10.);
#101=VECTOR('',#353,10.);
#102=VECTOR('',#358,10.);
#103=VECTOR('',#359,10.);
#104=VECTOR('',#360,10.);
#105=VECTOR('',#363,10.);
#106=VECTOR('',#364,10.);
#107=VECTOR('',#367,10.);
#108=VECTOR('',#368,10.);
#109=VECTOR('',#371,10.);
#110=VECTOR('',#380,10.);
#111=VERTEX_POINT('',#385);
#112=VERTEX_POINT('',#386);
#113=VERTEX_POINT('',#388);
#114=VERTEX_POINT('',#390);
#115=VERTEX_POINT('',#394);
#116=VERTEX_POINT('',#395);
#117=VERTEX_POINT('',#400);
#118=VERTEX_POINT('',#401);
#119=VERTEX_POINT('',#406);
#120=VERTEX_POINT('',#408);
#121=VERTEX_POINT('',#412);
#122=VERTEX_POINT('',#414);
#123=VERTEX_POINT('',#418);
#124=VERTEX_POINT('',#420);
#125=VERTEX_POINT('',#424);
#126=VERTEX_POINT('',#426);
#127=VERTEX_POINT('',#428);
#128=VERTEX_POINT('',#430);
#129=VERTEX_POINT('',#432);
#130=VERTEX_POINT('',#436);
#131=VERTEX_POINT('',#438);
#132=VERTEX_POINT('',#442);
#133=VERTEX_POINT('',#446);
#134=VERTEX_POINT('',#450);
#135=EDGE_CURVE('',#111,#112,#55,.T.);
#136=EDGE_CURVE('',#111,#113,#56,.T.);
#137=EDGE_CURVE('',#113,#114,#57,.T.);
#138=EDGE_CURVE('',#114,#112,#58,.T.);
#139=EDGE_CURVE('',#115,#116,#59,.T.);
#140=EDGE_CURVE('',#114,#116,#60,.T.);
#141=EDGE_CURVE('',#113,#115,#61,.T.);
#142=EDGE_CURVE('',#117,#118,#62,.T.);
#143=EDGE_CURVE('',#116,#117,#63,.T.);
#144=EDGE_CURVE('',#118,#115,#64,.T.);
#145=EDGE_CURVE('',#119,#112,#15,.T.);
#146=EDGE_CURVE('',#120,#119,#65,.T.);
#147=EDGE_CURVE('',#120,#111,#16,.T.);
#148=EDGE_CURVE('',#121,#118,#17,.T.);
#149=EDGE_CURVE('',#122,#121,#66,.T.);
#150=EDGE_CURVE('',#122,#117,#18,.T.);
#151=EDGE_CURVE('',#123,#121,#67,.T.);
#152=EDGE_CURVE('',#123,#124,#68,.T.);
#153=EDGE_CURVE('',#122,#124,#69,.T.);
#154=EDGE_CURVE('',#120,#125,#70,.T.);
#155=EDGE_CURVE('',#125,#126,#19,.T.);
#156=EDGE_CURVE('',#127,#126,#71,.T.);
#157=EDGE_CURVE('',#127,#128,#72,.T.);
#158=EDGE_CURVE('',#128,#129,#73,.T.);
#159=EDGE_CURVE('',#123,#129,#20,.T.);
#160=EDGE_CURVE('',#130,#126,#74,.T.);
#161=EDGE_CURVE('',#130,#131,#75,.T.);
#162=EDGE_CURVE('',#131,#127,#76,.T.);
#163=EDGE_CURVE('',#132,#128,#77,.T.);
#164=EDGE_CURVE('',#131,#132,#78,.T.);
#165=EDGE_CURVE('',#129,#133,#79,.T.);
#166=EDGE_CURVE('',#133,#132,#80,.T.);
#167=EDGE_CURVE('',#134,#125,#81,.T.);
#168=EDGE_CURVE('',#134,#130,#21,.T.);
#169=EDGE_CURVE('',#124,#133,#22,.T.);
#170=EDGE_CURVE('',#134,#119,#82,.T.);
#171=ORIENTED_EDGE('',*,*,#135,.F.);
#172=ORIENTED_EDGE('',*,*,#136,.T.);
#173=ORIENTED_EDGE('',*,*,#137,.T.);
#174=ORIENTED_EDGE('',*,*,#138,.T.);
#175=ORIENTED_EDGE('',*,*,#139,.T.);
#176=ORIENTED_EDGE('',*,*,#140,.F.);
#177=ORIENTED_EDGE('',*,*,#137,.F.);
#178=ORIENTED_EDGE('',*,*,#141,.T.);
#179=ORIENTED_EDGE('',*,*,#142,.F.);
#180=ORIENTED_EDGE('',*,*,#143,.F.);
#181=ORIENTED_EDGE('',*,*,#139,.F.);
#182=ORIENTED_EDGE('',*,*,#144,.F.);
#183=ORIENTED_EDGE('',*,*,#135,.T.);
#184=ORIENTED_EDGE('',*,*,#145,.F.);
#185=ORIENTED_EDGE('',*,*,#146,.F.);
#186=ORIENTED_EDGE('',*,*,#147,.T.);
#187=ORIENTED_EDGE('',*,*,#142,.T.);
#188=ORIENTED_EDGE('',*,*,#148,.F.);
#189=ORIENTED_EDGE('',*,*,#149,.F.);
#190=ORIENTED_EDGE('',*,*,#150,.T.);
#191=ORIENTED_EDGE('',*,*,#149,.T.);
#192=ORIENTED_EDGE('',*,*,#151,.F.);
#193=ORIENTED_EDGE('',*,*,#152,.T.);
#194=ORIENTED_EDGE('',*,*,#153,.F.);
#195=ORIENTED_EDGE('',*,*,#154,.T.);
#196=ORIENTED_EDGE('',*,*,#155,.T.);
#197=ORIENTED_EDGE('',*,*,#156,.F.);
#198=ORIENTED_EDGE('',*,*,#157,.T.);
#199=ORIENTED_EDGE('',*,*,#158,.T.);
#200=ORIENTED_EDGE('',*,*,#159,.F.);
#201=ORIENTED_EDGE('',*,*,#151,.T.);
#202=ORIENTED_EDGE('',*,*,#148,.T.);
#203=ORIENTED_EDGE('',*,*,#144,.T.);
#204=ORIENTED_EDGE('',*,*,#141,.F.);
#205=ORIENTED_EDGE('',*,*,#136,.F.);
#206=ORIENTED_EDGE('',*,*,#147,.F.);
#207=ORIENTED_EDGE('',*,*,#160,.F.);
#208=ORIENTED_EDGE('',*,*,#161,.T.);
#209=ORIENTED_EDGE('',*,*,#162,.T.);
#210=ORIENTED_EDGE('',*,*,#156,.T.);
#211=ORIENTED_EDGE('',*,*,#163,.T.);
#212=ORIENTED_EDGE('',*,*,#157,.F.);
#213=ORIENTED_EDGE('',*,*,#162,.F.);
#214=ORIENTED_EDGE('',*,*,#164,.T.);
#215=ORIENTED_EDGE('',*,*,#165,.F.);
#216=ORIENTED_EDGE('',*,*,#158,.F.);
#217=ORIENTED_EDGE('',*,*,#163,.F.);
#218=ORIENTED_EDGE('',*,*,#166,.F.);
#219=ORIENTED_EDGE('',*,*,#160,.T.);
#220=ORIENTED_EDGE('',*,*,#155,.F.);
#221=ORIENTED_EDGE('',*,*,#167,.F.);
#222=ORIENTED_EDGE('',*,*,#168,.T.);
#223=ORIENTED_EDGE('',*,*,#165,.T.);
#224=ORIENTED_EDGE('',*,*,#169,.F.);
#225=ORIENTED_EDGE('',*,*,#152,.F.);
#226=ORIENTED_EDGE('',*,*,#159,.T.);
#227=ORIENTED_EDGE('',*,*,#146,.T.);
#228=ORIENTED_EDGE('',*,*,#170,.F.);
#229=ORIENTED_EDGE('',*,*,#167,.T.);
#230=ORIENTED_EDGE('',*,*,#154,.F.);
#231=ORIENTED_EDGE('',*,*,#153,.T.);
#232=ORIENTED_EDGE('',*,*,#169,.T.);
#233=ORIENTED_EDGE('',*,*,#166,.T.);
#234=ORIENTED_EDGE('',*,*,#164,.F.);
#235=ORIENTED_EDGE('',*,*,#161,.F.);
#236=ORIENTED_EDGE('',*,*,#168,.F.);
#237=ORIENTED_EDGE('',*,*,#170,.T.);
#238=ORIENTED_EDGE('',*,*,#145,.T.);
#239=ORIENTED_EDGE('',*,*,#138,.F.);
#240=ORIENTED_EDGE('',*,*,#140,.T.);
#241=ORIENTED_EDGE('',*,*,#143,.T.);
#242=ORIENTED_EDGE('',*,*,#150,.F.);
#243=PLANE('',#287);
#244=PLANE('',#288);
#245=PLANE('',#289);
#246=PLANE('',#296);
#247=PLANE('',#297);
#248=PLANE('',#300);
#249=PLANE('',#301);
#250=PLANE('',#302);
#251=PLANE('',#307);
#252=PLANE('',#308);
#253=ADVANCED_FACE('',(#27),#243,.F.);
#254=ADVANCED_FACE('',(#28),#244,.T.);
#255=ADVANCED_FACE('',(#29),#245,.T.);
#256=ADVANCED_FACE('',(#30),#23,.F.);
#257=ADVANCED_FACE('',(#31),#24,.T.);
#258=ADVANCED_FACE('',(#32),#246,.F.);
#259=ADVANCED_FACE('',(#33),#247,.T.);
#260=ADVANCED_FACE('',(#34),#248,.T.);
#261=ADVANCED_FACE('',(#35),#249,.T.);
#262=ADVANCED_FACE('',(#36),#250,.F.);
#263=ADVANCED_FACE('',(#37),#25,.F.);
#264=ADVANCED_FACE('',(#38),#26,.T.);
#265=ADVANCED_FACE('',(#39),#251,.T.);
#266=ADVANCED_FACE('',(#40),#252,.T.);
#267=CLOSED_SHELL('',(#253,#254,#255,#256,#257,#258,#259,#260,#261,#262,
#263,#264,#265,#266));
#268=DERIVED_UNIT_ELEMENT(#270,1.);
#269=DERIVED_UNIT_ELEMENT(#463,3.);
#270=(
MASS_UNIT()
NAMED_UNIT(*)
SI_UNIT($,.GRAM.)
);
#271=DERIVED_UNIT((#268,#269));
#272=MEASURE_REPRESENTATION_ITEM('density measure',
POSITIVE_RATIO_MEASURE(7.86),#271);
#273=PROPERTY_DEFINITION_REPRESENTATION(#278,#275);
#274=PROPERTY_DEFINITION_REPRESENTATION(#279,#276);
#275=REPRESENTATION('material name',(#277),#460);
#276=REPRESENTATION('density',(#272),#460);
#277=DESCRIPTIVE_REPRESENTATION_ITEM('S235JR','S235JR');
#278=PROPERTY_DEFINITION('material property','material name',#470);
#279=PROPERTY_DEFINITION('material property','density of part',#470);
#280=DATE_TIME_ROLE('creation_date');
#281=APPLIED_DATE_AND_TIME_ASSIGNMENT(#282,#280,(#470));
#282=DATE_AND_TIME(#283,#284);
#283=CALENDAR_DATE(2008,19,12);
#284=LOCAL_TIME(9,8,45.,#285);
#285=COORDINATED_UNIVERSAL_TIME_OFFSET(0,0,.BEHIND.);
#286=AXIS2_PLACEMENT_3D('placement',#383,#309,#310);
#287=AXIS2_PLACEMENT_3D('',#384,#311,#312);
#288=AXIS2_PLACEMENT_3D('',#393,#317,#318);
#289=AXIS2_PLACEMENT_3D('',#399,#322,#323);
#290=AXIS2_PLACEMENT_3D('',#405,#327,#328);
#291=AXIS2_PLACEMENT_3D('',#407,#329,#330);
#292=AXIS2_PLACEMENT_3D('',#410,#332,#333);
#293=AXIS2_PLACEMENT_3D('',#411,#334,#335);
#294=AXIS2_PLACEMENT_3D('',#413,#336,#337);
#295=AXIS2_PLACEMENT_3D('',#416,#339,#340);
#296=AXIS2_PLACEMENT_3D('',#417,#341,#342);
#297=AXIS2_PLACEMENT_3D('',#423,#346,#347);
#298=AXIS2_PLACEMENT_3D('',#427,#349,#350);
#299=AXIS2_PLACEMENT_3D('',#434,#354,#355);
#300=AXIS2_PLACEMENT_3D('',#435,#356,#357);
#301=AXIS2_PLACEMENT_3D('',#441,#361,#362);
#302=AXIS2_PLACEMENT_3D('',#445,#365,#366);
#303=AXIS2_PLACEMENT_3D('',#449,#369,#370);
#304=AXIS2_PLACEMENT_3D('',#452,#372,#373);
#305=AXIS2_PLACEMENT_3D('',#453,#374,#375);
#306=AXIS2_PLACEMENT_3D('',#454,#376,#377);
#307=AXIS2_PLACEMENT_3D('',#455,#378,#379);
#308=AXIS2_PLACEMENT_3D('',#457,#381,#382);
#309=DIRECTION('axis',(0.,0.,1.));
#310=DIRECTION('refdir',(1.,0.,0.));
#311=DIRECTION('center_axis',(-2.38804483227553E-49,1.,1.25099210716019E-31));
#312=DIRECTION('ref_axis',(0.,-1.25099210716019E-31,1.));
#313=DIRECTION('',(-1.,0.,0.));
#314=DIRECTION('',(0.,6.12323399573677E-17,1.));
#315=DIRECTION('',(-1.,0.,0.));
#316=DIRECTION('',(0.,-6.12323399573677E-17,-1.));
#317=DIRECTION('center_axis',(0.,0.,1.));
#318=DIRECTION('ref_axis',(1.,0.,0.));
#319=DIRECTION('',(-1.,0.,0.));
#320=DIRECTION('',(0.,1.,0.));
#321=DIRECTION('',(0.,1.,0.));
#322=DIRECTION('center_axis',(-2.59485263637782E-49,1.,1.2877859926649E-31));
#323=DIRECTION('ref_axis',(0.,-1.2877859926649E-31,1.));
#324=DIRECTION('',(1.,0.,0.));
#325=DIRECTION('',(0.,-6.12323399573677E-17,-1.));
#326=DIRECTION('',(0.,6.12323399573677E-17,1.));
#327=DIRECTION('center_axis',(1.,0.,0.));
#328=DIRECTION('ref_axis',(0.,5.55111512312578E-16,-1.));
#329=DIRECTION('center_axis',(1.,0.,0.));
#330=DIRECTION('ref_axis',(0.,5.55111512312578E-16,-1.));
#331=DIRECTION('',(-1.,0.,0.));
#332=DIRECTION('center_axis',(1.,0.,0.));
#333=DIRECTION('ref_axis',(0.,5.55111512312578E-16,-1.));
#334=DIRECTION('center_axis',(1.,0.,0.));
#335=DIRECTION('ref_axis',(0.,5.55111512312578E-16,-1.));
#336=DIRECTION('center_axis',(1.,0.,0.));
#337=DIRECTION('ref_axis',(0.,5.55111512312578E-16,-1.));
#338=DIRECTION('',(1.,0.,0.));
#339=DIRECTION('center_axis',(1.,0.,0.));
#340=DIRECTION('ref_axis',(0.,5.55111512312578E-16,-1.));
#341=DIRECTION('center_axis',(0.,0.,1.));
#342=DIRECTION('ref_axis',(1.,0.,0.));
#343=DIRECTION('',(0.,1.,0.));
#344=DIRECTION('',(-1.,0.,0.));
#345=DIRECTION('',(0.,-1.,0.));
#346=DIRECTION('center_axis',(1.,0.,0.));
#347=DIRECTION('ref_axis',(0.,0.,-1.));
#348=DIRECTION('',(0.,-1.,0.));
#349=DIRECTION('center_axis',(-1.,0.,0.));
#350=DIRECTION('ref_axis',(-5.27355936696949E-15,-5.55111512312578E-16,
-1.));
#351=DIRECTION('',(0.,6.12323399573677E-17,-1.));
#352=DIRECTION('',(0.,-1.,0.));
#353=DIRECTION('',(0.,6.12323399573677E-17,-1.));
#354=DIRECTION('center_axis',(-1.,0.,0.));
#355=DIRECTION('ref_axis',(-5.27355936696949E-15,-5.55111512312578E-16,
-1.));
#356=DIRECTION('center_axis',(-2.38804483227553E-49,1.,-1.25099210716019E-31));
#357=DIRECTION('ref_axis',(0.,1.25099210716019E-31,1.));
#358=DIRECTION('',(1.,5.27355936696949E-15,-5.2735593669695E-15));
#359=DIRECTION('',(0.,-6.12323399573677E-17,1.));
#360=DIRECTION('',(1.,0.,0.));
#361=DIRECTION('center_axis',(0.,0.,1.));
#362=DIRECTION('ref_axis',(1.,0.,0.));
#363=DIRECTION('',(1.,0.,0.));
#364=DIRECTION('',(0.,-1.,0.));
#365=DIRECTION('center_axis',(-2.59485263637782E-49,1.,-1.2877859926649E-31));
#366=DIRECTION('ref_axis',(0.,1.2877859926649E-31,1.));
#367=DIRECTION('',(-1.,-5.27355936696949E-15,5.2735593669695E-15));
#368=DIRECTION('',(0.,-6.12323399573677E-17,1.));
#369=DIRECTION('center_axis',(-1.,0.,0.));
#370=DIRECTION('ref_axis',(-5.27355936696949E-15,-5.55111512312578E-16,
-1.));
#371=DIRECTION('',(1.,0.,0.));
#372=DIRECTION('center_axis',(-1.,0.,0.));
#373=DIRECTION('ref_axis',(-5.27355936696949E-15,-5.55111512312578E-16,
-1.));
#374=DIRECTION('center_axis',(-1.,0.,0.));
#375=DIRECTION('ref_axis',(-5.27355936696949E-15,-5.55111512312578E-16,
-1.));
#376=DIRECTION('center_axis',(-1.,0.,0.));
#377=DIRECTION('ref_axis',(-5.27355936696949E-15,-5.55111512312578E-16,
-1.));
#378=DIRECTION('center_axis',(0.,0.,1.));
#379=DIRECTION('ref_axis',(1.,0.,0.));
#380=DIRECTION('',(0.,1.,0.));
#381=DIRECTION('center_axis',(-1.,0.,0.));
#382=DIRECTION('ref_axis',(0.,0.,1.));
#383=CARTESIAN_POINT('',(0.,0.,0.));
#384=CARTESIAN_POINT('Origin',(500.,20.25,14.));
#385=CARTESIAN_POINT('',(1000.,20.25,8.00000000000001));
#386=CARTESIAN_POINT('',(0.,20.25,8.00000000000001));
#387=CARTESIAN_POINT('',(0.,20.25,8.00000000000001));
#388=CARTESIAN_POINT('',(1000.,20.25,24.));
#389=CARTESIAN_POINT('',(1000.,20.25,4.));
#390=CARTESIAN_POINT('',(4.44089209850063E-15,20.25,24.));
#391=CARTESIAN_POINT('',(1000.,20.25,24.));
#392=CARTESIAN_POINT('',(4.44089209850063E-15,20.25,24.));
#393=CARTESIAN_POINT('Origin',(1000.,20.25,24.));
#394=CARTESIAN_POINT('',(1000.,24.25,24.));
#395=CARTESIAN_POINT('',(4.44089209850063E-15,24.25,24.));
#396=CARTESIAN_POINT('',(1000.,24.25,24.));
#397=CARTESIAN_POINT('',(4.44089209850063E-15,20.25,24.));
#398=CARTESIAN_POINT('',(1000.,20.25,24.));
#399=CARTESIAN_POINT('Origin',(500.,24.25,14.));
#400=CARTESIAN_POINT('',(0.,24.25,8.00000000000001));
#401=CARTESIAN_POINT('',(1000.,24.25,8.00000000000001));
#402=CARTESIAN_POINT('',(1000.,24.25,8.00000000000001));
#403=CARTESIAN_POINT('',(4.44089209850063E-15,24.25,24.));
#404=CARTESIAN_POINT('',(1000.,24.25,4.));
#405=CARTESIAN_POINT('Origin',(500.,16.25,8.));
#406=CARTESIAN_POINT('',(0.,16.25,4.));
#407=CARTESIAN_POINT('Origin',(0.,16.25,8.));
#408=CARTESIAN_POINT('',(1000.,16.25,4.));
#409=CARTESIAN_POINT('',(250.,16.25,4.));
#410=CARTESIAN_POINT('Origin',(1000.,16.25,8.));
#411=CARTESIAN_POINT('Origin',(500.,16.25,8.));
#412=CARTESIAN_POINT('',(1000.,16.25,-1.11022302462516E-15));
#413=CARTESIAN_POINT('Origin',(1000.,16.25,8.));
#414=CARTESIAN_POINT('',(0.,16.25,-1.11022302462516E-15));
#415=CARTESIAN_POINT('',(250.,16.25,0.));
#416=CARTESIAN_POINT('Origin',(0.,16.25,8.));
#417=CARTESIAN_POINT('Origin',(500.,0.,0.));
#418=CARTESIAN_POINT('',(1000.,-16.25,-1.11022302462516E-15));
#419=CARTESIAN_POINT('',(1000.,-20.25,0.));
#420=CARTESIAN_POINT('',(4.44089209850063E-15,-16.25,-1.11022302462516E-15));
#421=CARTESIAN_POINT('',(750.,-16.25,0.));
#422=CARTESIAN_POINT('',(4.44089209850063E-15,20.25,0.));
#423=CARTESIAN_POINT('Origin',(1000.,20.25,0.));
#424=CARTESIAN_POINT('',(1000.,-16.25,4.));
#425=CARTESIAN_POINT('',(1000.,-20.25,4.));
#426=CARTESIAN_POINT('',(1000.,-20.25,7.99999999999474));
#427=CARTESIAN_POINT('Origin',(1000.,-16.25,8.));
#428=CARTESIAN_POINT('',(1000.,-20.25,24.));
#429=CARTESIAN_POINT('',(1000.,-20.25,24.));
#430=CARTESIAN_POINT('',(1000.,-24.25,24.));
#431=CARTESIAN_POINT('',(1000.,-20.25,24.));
#432=CARTESIAN_POINT('',(1000.,-24.25,7.99999999999474));
#433=CARTESIAN_POINT('',(1000.,-24.25,24.));
#434=CARTESIAN_POINT('Origin',(1000.,-16.25,8.));
#435=CARTESIAN_POINT('Origin',(500.,-20.25,14.));
#436=CARTESIAN_POINT('',(0.,-20.25,8.00000000000001));
#437=CARTESIAN_POINT('',(1000.,-20.2499999999947,7.99999999999474));
#438=CARTESIAN_POINT('',(0.,-20.25,24.));
#439=CARTESIAN_POINT('',(0.,-20.25,4.));
#440=CARTESIAN_POINT('',(0.,-20.25,24.));
#441=CARTESIAN_POINT('Origin',(0.,-20.25,24.));
#442=CARTESIAN_POINT('',(0.,-24.25,24.));
#443=CARTESIAN_POINT('',(0.,-24.25,24.));
#444=CARTESIAN_POINT('',(0.,-20.25,24.));
#445=CARTESIAN_POINT('Origin',(500.,-24.25,14.));
#446=CARTESIAN_POINT('',(0.,-24.25,8.00000000000001));
#447=CARTESIAN_POINT('',(4.66987559732957E-14,-24.25,8.00000000000001));
#448=CARTESIAN_POINT('',(0.,-24.25,4.));
#449=CARTESIAN_POINT('Origin',(500.,-16.25,8.));
#450=CARTESIAN_POINT('',(4.44089209850063E-15,-16.25,4.));
#451=CARTESIAN_POINT('',(750.,-16.25,4.));
#452=CARTESIAN_POINT('Origin',(0.,-16.25,8.));
#453=CARTESIAN_POINT('Origin',(500.,-16.25,8.));
#454=CARTESIAN_POINT('Origin',(4.44089209850063E-15,-16.25,8.));
#455=CARTESIAN_POINT('Origin',(500.,0.,4.));
#456=CARTESIAN_POINT('',(4.44089209850063E-15,20.25,4.));
#457=CARTESIAN_POINT('Origin',(4.44089209850063E-15,-20.25,0.));
#458=UNCERTAINTY_MEASURE_WITH_UNIT(LENGTH_MEASURE(0.01),#462,
'DISTANCE_ACCURACY_VALUE',
'Maximum model space distance between geometric entities at asserted c
onnectivities');
#459=UNCERTAINTY_MEASURE_WITH_UNIT(LENGTH_MEASURE(0.01),#462,
'DISTANCE_ACCURACY_VALUE',
'Maximum model space distance between geometric entities at asserted c
onnectivities');
#460=(
GEOMETRIC_REPRESENTATION_CONTEXT(3)
GLOBAL_UNCERTAINTY_ASSIGNED_CONTEXT((#458))
GLOBAL_UNIT_ASSIGNED_CONTEXT((#462,#464,#465))
REPRESENTATION_CONTEXT('','3D')
);
#461=(
GEOMETRIC_REPRESENTATION_CONTEXT(3)
GLOBAL_UNCERTAINTY_ASSIGNED_CONTEXT((#459))
GLOBAL_UNIT_ASSIGNED_CONTEXT((#462,#464,#465))
REPRESENTATION_CONTEXT('','3D')
);
#462=(
LENGTH_UNIT()
NAMED_UNIT(*)
SI_UNIT(.MILLI.,.METRE.)
);
#463=(
LENGTH_UNIT()
NAMED_UNIT(*)
SI_UNIT(.CENTI.,.METRE.)
);
#464=(
NAMED_UNIT(*)
PLANE_ANGLE_UNIT()
SI_UNIT($,.RADIAN.)
);
#465=(
NAMED_UNIT(*)
SI_UNIT($,.STERADIAN.)
SOLID_ANGLE_UNIT()
);
#466=SHAPE_DEFINITION_REPRESENTATION(#467,#468);
#467=PRODUCT_DEFINITION_SHAPE('',$,#470);
#468=SHAPE_REPRESENTATION('',(#286),#460);
#469=PRODUCT_DEFINITION_CONTEXT('part definition',#474,'design');
#470=PRODUCT_DEFINITION('UP 040.0730','UP 040.0730',#471,#469);
#471=PRODUCT_DEFINITION_FORMATION('',$,#476);
#472=PRODUCT_RELATED_PRODUCT_CATEGORY('UP 040.0730','UP 040.0730',(#476));
#473=APPLICATION_PROTOCOL_DEFINITION('international standard',
'automotive_design',2009,#474);
#474=APPLICATION_CONTEXT(
'Core Data for Automotive Mechanical Design Process');
#475=PRODUCT_CONTEXT('part definition',#474,'mechanical');
#476=PRODUCT('UP 040.0730','UP 040.0730','U-F\X\FChrungsprofil',(#475));
#477=PRESENTATION_STYLE_ASSIGNMENT((#478));
#478=SURFACE_STYLE_USAGE(.BOTH.,#481);
#479=SURFACE_STYLE_RENDERING_WITH_PROPERTIES($,#485,(#480));
#480=SURFACE_STYLE_TRANSPARENT(0.);
#481=SURFACE_SIDE_STYLE('',(#482,#479));
#482=SURFACE_STYLE_FILL_AREA(#483);
#483=FILL_AREA_STYLE('',(#484));
#484=FILL_AREA_STYLE_COLOUR('',#485);
#485=COLOUR_RGB('',0.87843137254902,0.874509803921569,0.858823529411765);
ENDSEC;
END-ISO-10303-21;
