ISO-10303-21;
HEADER;
/* Generated by software containing ST-Developer
 * from STEP Tools, Inc. (www.steptools.com) 
 */

FILE_DESCRIPTION(
/* description */ ('U-Pr\X\E4zisions-F\X\FChrungsprofil'),
/* implementation_level */ '2;1');

FILE_NAME(
/* name */ 
'C:\\VAULT_WORKSPACE\\Projekte\\Werksnorm\\Profile\\UP xxx.0760\\ALFAT
EC_UP090.0760.stp',
/* time_stamp */ '2020-03-21T16:01:27+01:00',
/* author */ ('hipp'),
/* organization */ (''),
/* preprocessor_version */ 'ST-DEVELOPER v18',
/* originating_system */ 'Autodesk Inventor 2020',
/* authorisation */ '');

FILE_SCHEMA (('CONFIG_CONTROL_DESIGN'));
ENDSEC;

DATA;
#10=MECHANICAL_DESIGN_GEOMETRIC_PRESENTATION_REPRESENTATION('',(#13),#589);
#11=SHAPE_REPRESENTATION_RELATIONSHIP('SRR','None',#596,#12);
#12=ADVANCED_BREP_SHAPE_REPRESENTATION('',(#14),#588);
#13=STYLED_ITEM('',(#605),#14);
#14=MANIFOLD_SOLID_BREP('Volumenk\X\F6rper1',#355);
#15=CYLINDRICAL_SURFACE('',#386,4.99999999999909);
#16=CYLINDRICAL_SURFACE('',#393,4.99999999999909);
#17=CIRCLE('',#380,4.99999999999909);
#18=CIRCLE('',#381,4.99999999999909);
#19=CIRCLE('',#387,4.99999999999909);
#20=CIRCLE('',#394,4.99999999999909);
#21=FACE_OUTER_BOUND('',#39,.T.);
#22=FACE_OUTER_BOUND('',#40,.T.);
#23=FACE_OUTER_BOUND('',#41,.T.);
#24=FACE_OUTER_BOUND('',#42,.T.);
#25=FACE_OUTER_BOUND('',#43,.T.);
#26=FACE_OUTER_BOUND('',#44,.T.);
#27=FACE_OUTER_BOUND('',#45,.T.);
#28=FACE_OUTER_BOUND('',#46,.T.);
#29=FACE_OUTER_BOUND('',#47,.T.);
#30=FACE_OUTER_BOUND('',#48,.T.);
#31=FACE_OUTER_BOUND('',#49,.T.);
#32=FACE_OUTER_BOUND('',#50,.T.);
#33=FACE_OUTER_BOUND('',#51,.T.);
#34=FACE_OUTER_BOUND('',#52,.T.);
#35=FACE_OUTER_BOUND('',#53,.T.);
#36=FACE_OUTER_BOUND('',#54,.T.);
#37=FACE_OUTER_BOUND('',#55,.T.);
#38=FACE_OUTER_BOUND('',#56,.T.);
#39=EDGE_LOOP('',(#225,#226,#227,#228));
#40=EDGE_LOOP('',(#229,#230,#231,#232));
#41=EDGE_LOOP('',(#233,#234,#235,#236));
#42=EDGE_LOOP('',(#237,#238,#239,#240));
#43=EDGE_LOOP('',(#241,#242,#243,#244,#245,#246,#247,#248,#249,#250,#251,
#252,#253,#254,#255,#256));
#44=EDGE_LOOP('',(#257,#258,#259,#260));
#45=EDGE_LOOP('',(#261,#262,#263,#264));
#46=EDGE_LOOP('',(#265,#266,#267,#268));
#47=EDGE_LOOP('',(#269,#270,#271,#272));
#48=EDGE_LOOP('',(#273,#274,#275,#276));
#49=EDGE_LOOP('',(#277,#278,#279,#280));
#50=EDGE_LOOP('',(#281,#282,#283,#284));
#51=EDGE_LOOP('',(#285,#286,#287,#288));
#52=EDGE_LOOP('',(#289,#290,#291,#292));
#53=EDGE_LOOP('',(#293,#294,#295,#296));
#54=EDGE_LOOP('',(#297,#298,#299,#300));
#55=EDGE_LOOP('',(#301,#302,#303,#304));
#56=EDGE_LOOP('',(#305,#306,#307,#308,#309,#310,#311,#312,#313,#314,#315,
#316,#317,#318,#319,#320));
#57=LINE('',#491,#101);
#58=LINE('',#493,#102);
#59=LINE('',#495,#103);
#60=LINE('',#496,#104);
#61=LINE('',#499,#105);
#62=LINE('',#501,#106);
#63=LINE('',#502,#107);
#64=LINE('',#506,#108);
#65=LINE('',#508,#109);
#66=LINE('',#510,#110);
#67=LINE('',#511,#111);
#68=LINE('',#514,#112);
#69=LINE('',#516,#113);
#70=LINE('',#517,#114);
#71=LINE('',#520,#115);
#72=LINE('',#524,#116);
#73=LINE('',#526,#117);
#74=LINE('',#528,#118);
#75=LINE('',#530,#119);
#76=LINE('',#532,#120);
#77=LINE('',#536,#121);
#78=LINE('',#537,#122);
#79=LINE('',#539,#123);
#80=LINE('',#540,#124);
#81=LINE('',#543,#125);
#82=LINE('',#544,#126);
#83=LINE('',#546,#127);
#84=LINE('',#549,#128);
#85=LINE('',#550,#129);
#86=LINE('',#553,#130);
#87=LINE('',#554,#131);
#88=LINE('',#557,#132);
#89=LINE('',#561,#133);
#90=LINE('',#562,#134);
#91=LINE('',#565,#135);
#92=LINE('',#566,#136);
#93=LINE('',#569,#137);
#94=LINE('',#570,#138);
#95=LINE('',#573,#139);
#96=LINE('',#574,#140);
#97=LINE('',#577,#141);
#98=LINE('',#578,#142);
#99=LINE('',#581,#143);
#100=LINE('',#584,#144);
#101=VECTOR('',#401,10.);
#102=VECTOR('',#402,10.);
#103=VECTOR('',#403,10.);
#104=VECTOR('',#404,10.);
#105=VECTOR('',#407,10.);
#106=VECTOR('',#408,10.);
#107=VECTOR('',#409,10.);
#108=VECTOR('',#412,10.);
#109=VECTOR('',#413,10.);
#110=VECTOR('',#414,10.);
#111=VECTOR('',#415,10.);
#112=VECTOR('',#418,10.);
#113=VECTOR('',#419,10.);
#114=VECTOR('',#420,10.);
#115=VECTOR('',#423,10.);
#116=VECTOR('',#426,10.);
#117=VECTOR('',#427,10.);
#118=VECTOR('',#428,10.);
#119=VECTOR('',#429,10.);
#120=VECTOR('',#430,10.);
#121=VECTOR('',#433,10.);
#122=VECTOR('',#434,10.);
#123=VECTOR('',#435,10.);
#124=VECTOR('',#436,10.);
#125=VECTOR('',#439,10.);
#126=VECTOR('',#440,10.);
#127=VECTOR('',#443,10.);
#128=VECTOR('',#446,10.);
#129=VECTOR('',#447,10.);
#130=VECTOR('',#450,10.);
#131=VECTOR('',#451,10.);
#132=VECTOR('',#454,10.);
#133=VECTOR('',#459,10.);
#134=VECTOR('',#460,10.);
#135=VECTOR('',#463,10.);
#136=VECTOR('',#464,10.);
#137=VECTOR('',#467,10.);
#138=VECTOR('',#468,10.);
#139=VECTOR('',#471,10.);
#140=VECTOR('',#472,10.);
#141=VECTOR('',#475,10.);
#142=VECTOR('',#476,10.);
#143=VECTOR('',#479,10.);
#144=VECTOR('',#484,10.);
#145=VERTEX_POINT('',#489);
#146=VERTEX_POINT('',#490);
#147=VERTEX_POINT('',#492);
#148=VERTEX_POINT('',#494);
#149=VERTEX_POINT('',#498);
#150=VERTEX_POINT('',#500);
#151=VERTEX_POINT('',#504);
#152=VERTEX_POINT('',#505);
#153=VERTEX_POINT('',#507);
#154=VERTEX_POINT('',#509);
#155=VERTEX_POINT('',#513);
#156=VERTEX_POINT('',#515);
#157=VERTEX_POINT('',#519);
#158=VERTEX_POINT('',#521);
#159=VERTEX_POINT('',#523);
#160=VERTEX_POINT('',#525);
#161=VERTEX_POINT('',#527);
#162=VERTEX_POINT('',#529);
#163=VERTEX_POINT('',#531);
#164=VERTEX_POINT('',#533);
#165=VERTEX_POINT('',#535);
#166=VERTEX_POINT('',#538);
#167=VERTEX_POINT('',#542);
#168=VERTEX_POINT('',#548);
#169=VERTEX_POINT('',#552);
#170=VERTEX_POINT('',#556);
#171=VERTEX_POINT('',#560);
#172=VERTEX_POINT('',#564);
#173=VERTEX_POINT('',#568);
#174=VERTEX_POINT('',#572);
#175=VERTEX_POINT('',#576);
#176=VERTEX_POINT('',#580);
#177=EDGE_CURVE('',#145,#146,#57,.T.);
#178=EDGE_CURVE('',#147,#145,#58,.T.);
#179=EDGE_CURVE('',#148,#147,#59,.T.);
#180=EDGE_CURVE('',#146,#148,#60,.T.);
#181=EDGE_CURVE('',#145,#149,#61,.T.);
#182=EDGE_CURVE('',#149,#150,#62,.T.);
#183=EDGE_CURVE('',#147,#150,#63,.T.);
#184=EDGE_CURVE('',#151,#152,#64,.T.);
#185=EDGE_CURVE('',#153,#151,#65,.T.);
#186=EDGE_CURVE('',#154,#153,#66,.T.);
#187=EDGE_CURVE('',#154,#152,#67,.T.);
#188=EDGE_CURVE('',#151,#155,#68,.T.);
#189=EDGE_CURVE('',#155,#156,#69,.T.);
#190=EDGE_CURVE('',#156,#153,#70,.T.);
#191=EDGE_CURVE('',#157,#150,#71,.T.);
#192=EDGE_CURVE('',#158,#157,#17,.T.);
#193=EDGE_CURVE('',#159,#158,#72,.T.);
#194=EDGE_CURVE('',#160,#159,#73,.T.);
#195=EDGE_CURVE('',#161,#160,#74,.T.);
#196=EDGE_CURVE('',#162,#161,#75,.T.);
#197=EDGE_CURVE('',#163,#162,#76,.T.);
#198=EDGE_CURVE('',#164,#163,#18,.T.);
#199=EDGE_CURVE('',#165,#164,#77,.T.);
#200=EDGE_CURVE('',#154,#165,#78,.T.);
#201=EDGE_CURVE('',#166,#156,#79,.T.);
#202=EDGE_CURVE('',#148,#166,#80,.T.);
#203=EDGE_CURVE('',#167,#166,#81,.T.);
#204=EDGE_CURVE('',#167,#146,#82,.T.);
#205=EDGE_CURVE('',#155,#167,#83,.T.);
#206=EDGE_CURVE('',#168,#165,#84,.T.);
#207=EDGE_CURVE('',#168,#152,#85,.T.);
#208=EDGE_CURVE('',#169,#164,#86,.T.);
#209=EDGE_CURVE('',#169,#168,#87,.T.);
#210=EDGE_CURVE('',#170,#163,#88,.T.);
#211=EDGE_CURVE('',#170,#169,#19,.T.);
#212=EDGE_CURVE('',#171,#162,#89,.T.);
#213=EDGE_CURVE('',#171,#170,#90,.T.);
#214=EDGE_CURVE('',#172,#161,#91,.T.);
#215=EDGE_CURVE('',#172,#171,#92,.T.);
#216=EDGE_CURVE('',#173,#160,#93,.T.);
#217=EDGE_CURVE('',#173,#172,#94,.T.);
#218=EDGE_CURVE('',#174,#159,#95,.T.);
#219=EDGE_CURVE('',#174,#173,#96,.T.);
#220=EDGE_CURVE('',#175,#158,#97,.T.);
#221=EDGE_CURVE('',#175,#174,#98,.T.);
#222=EDGE_CURVE('',#176,#157,#99,.T.);
#223=EDGE_CURVE('',#176,#175,#20,.T.);
#224=EDGE_CURVE('',#149,#176,#100,.T.);
#225=ORIENTED_EDGE('',*,*,#177,.F.);
#226=ORIENTED_EDGE('',*,*,#178,.F.);
#227=ORIENTED_EDGE('',*,*,#179,.F.);
#228=ORIENTED_EDGE('',*,*,#180,.F.);
#229=ORIENTED_EDGE('',*,*,#181,.T.);
#230=ORIENTED_EDGE('',*,*,#182,.T.);
#231=ORIENTED_EDGE('',*,*,#183,.F.);
#232=ORIENTED_EDGE('',*,*,#178,.T.);
#233=ORIENTED_EDGE('',*,*,#184,.F.);
#234=ORIENTED_EDGE('',*,*,#185,.F.);
#235=ORIENTED_EDGE('',*,*,#186,.F.);
#236=ORIENTED_EDGE('',*,*,#187,.T.);
#237=ORIENTED_EDGE('',*,*,#185,.T.);
#238=ORIENTED_EDGE('',*,*,#188,.T.);
#239=ORIENTED_EDGE('',*,*,#189,.T.);
#240=ORIENTED_EDGE('',*,*,#190,.T.);
#241=ORIENTED_EDGE('',*,*,#179,.T.);
#242=ORIENTED_EDGE('',*,*,#183,.T.);
#243=ORIENTED_EDGE('',*,*,#191,.F.);
#244=ORIENTED_EDGE('',*,*,#192,.F.);
#245=ORIENTED_EDGE('',*,*,#193,.F.);
#246=ORIENTED_EDGE('',*,*,#194,.F.);
#247=ORIENTED_EDGE('',*,*,#195,.F.);
#248=ORIENTED_EDGE('',*,*,#196,.F.);
#249=ORIENTED_EDGE('',*,*,#197,.F.);
#250=ORIENTED_EDGE('',*,*,#198,.F.);
#251=ORIENTED_EDGE('',*,*,#199,.F.);
#252=ORIENTED_EDGE('',*,*,#200,.F.);
#253=ORIENTED_EDGE('',*,*,#186,.T.);
#254=ORIENTED_EDGE('',*,*,#190,.F.);
#255=ORIENTED_EDGE('',*,*,#201,.F.);
#256=ORIENTED_EDGE('',*,*,#202,.F.);
#257=ORIENTED_EDGE('',*,*,#180,.T.);
#258=ORIENTED_EDGE('',*,*,#202,.T.);
#259=ORIENTED_EDGE('',*,*,#203,.F.);
#260=ORIENTED_EDGE('',*,*,#204,.T.);
#261=ORIENTED_EDGE('',*,*,#201,.T.);
#262=ORIENTED_EDGE('',*,*,#189,.F.);
#263=ORIENTED_EDGE('',*,*,#205,.T.);
#264=ORIENTED_EDGE('',*,*,#203,.T.);
#265=ORIENTED_EDGE('',*,*,#200,.T.);
#266=ORIENTED_EDGE('',*,*,#206,.F.);
#267=ORIENTED_EDGE('',*,*,#207,.T.);
#268=ORIENTED_EDGE('',*,*,#187,.F.);
#269=ORIENTED_EDGE('',*,*,#199,.T.);
#270=ORIENTED_EDGE('',*,*,#208,.F.);
#271=ORIENTED_EDGE('',*,*,#209,.T.);
#272=ORIENTED_EDGE('',*,*,#206,.T.);
#273=ORIENTED_EDGE('',*,*,#198,.T.);
#274=ORIENTED_EDGE('',*,*,#210,.F.);
#275=ORIENTED_EDGE('',*,*,#211,.T.);
#276=ORIENTED_EDGE('',*,*,#208,.T.);
#277=ORIENTED_EDGE('',*,*,#197,.T.);
#278=ORIENTED_EDGE('',*,*,#212,.F.);
#279=ORIENTED_EDGE('',*,*,#213,.T.);
#280=ORIENTED_EDGE('',*,*,#210,.T.);
#281=ORIENTED_EDGE('',*,*,#196,.T.);
#282=ORIENTED_EDGE('',*,*,#214,.F.);
#283=ORIENTED_EDGE('',*,*,#215,.T.);
#284=ORIENTED_EDGE('',*,*,#212,.T.);
#285=ORIENTED_EDGE('',*,*,#195,.T.);
#286=ORIENTED_EDGE('',*,*,#216,.F.);
#287=ORIENTED_EDGE('',*,*,#217,.T.);
#288=ORIENTED_EDGE('',*,*,#214,.T.);
#289=ORIENTED_EDGE('',*,*,#194,.T.);
#290=ORIENTED_EDGE('',*,*,#218,.F.);
#291=ORIENTED_EDGE('',*,*,#219,.T.);
#292=ORIENTED_EDGE('',*,*,#216,.T.);
#293=ORIENTED_EDGE('',*,*,#193,.T.);
#294=ORIENTED_EDGE('',*,*,#220,.F.);
#295=ORIENTED_EDGE('',*,*,#221,.T.);
#296=ORIENTED_EDGE('',*,*,#218,.T.);
#297=ORIENTED_EDGE('',*,*,#192,.T.);
#298=ORIENTED_EDGE('',*,*,#222,.F.);
#299=ORIENTED_EDGE('',*,*,#223,.T.);
#300=ORIENTED_EDGE('',*,*,#220,.T.);
#301=ORIENTED_EDGE('',*,*,#191,.T.);
#302=ORIENTED_EDGE('',*,*,#182,.F.);
#303=ORIENTED_EDGE('',*,*,#224,.T.);
#304=ORIENTED_EDGE('',*,*,#222,.T.);
#305=ORIENTED_EDGE('',*,*,#177,.T.);
#306=ORIENTED_EDGE('',*,*,#204,.F.);
#307=ORIENTED_EDGE('',*,*,#205,.F.);
#308=ORIENTED_EDGE('',*,*,#188,.F.);
#309=ORIENTED_EDGE('',*,*,#184,.T.);
#310=ORIENTED_EDGE('',*,*,#207,.F.);
#311=ORIENTED_EDGE('',*,*,#209,.F.);
#312=ORIENTED_EDGE('',*,*,#211,.F.);
#313=ORIENTED_EDGE('',*,*,#213,.F.);
#314=ORIENTED_EDGE('',*,*,#215,.F.);
#315=ORIENTED_EDGE('',*,*,#217,.F.);
#316=ORIENTED_EDGE('',*,*,#219,.F.);
#317=ORIENTED_EDGE('',*,*,#221,.F.);
#318=ORIENTED_EDGE('',*,*,#223,.F.);
#319=ORIENTED_EDGE('',*,*,#224,.F.);
#320=ORIENTED_EDGE('',*,*,#181,.F.);
#321=PLANE('',#375);
#322=PLANE('',#376);
#323=PLANE('',#377);
#324=PLANE('',#378);
#325=PLANE('',#379);
#326=PLANE('',#382);
#327=PLANE('',#383);
#328=PLANE('',#384);
#329=PLANE('',#385);
#330=PLANE('',#388);
#331=PLANE('',#389);
#332=PLANE('',#390);
#333=PLANE('',#391);
#334=PLANE('',#392);
#335=PLANE('',#395);
#336=PLANE('',#396);
#337=ADVANCED_FACE('',(#21),#321,.F.);
#338=ADVANCED_FACE('',(#22),#322,.F.);
#339=ADVANCED_FACE('',(#23),#323,.F.);
#340=ADVANCED_FACE('',(#24),#324,.T.);
#341=ADVANCED_FACE('',(#25),#325,.T.);
#342=ADVANCED_FACE('',(#26),#326,.T.);
#343=ADVANCED_FACE('',(#27),#327,.T.);
#344=ADVANCED_FACE('',(#28),#328,.T.);
#345=ADVANCED_FACE('',(#29),#329,.T.);
#346=ADVANCED_FACE('',(#30),#15,.T.);
#347=ADVANCED_FACE('',(#31),#330,.T.);
#348=ADVANCED_FACE('',(#32),#331,.T.);
#349=ADVANCED_FACE('',(#33),#332,.T.);
#350=ADVANCED_FACE('',(#34),#333,.T.);
#351=ADVANCED_FACE('',(#35),#334,.T.);
#352=ADVANCED_FACE('',(#36),#16,.T.);
#353=ADVANCED_FACE('',(#37),#335,.T.);
#354=ADVANCED_FACE('',(#38),#336,.F.);
#355=CLOSED_SHELL('',(#337,#338,#339,#340,#341,#342,#343,#344,#345,#346,
#347,#348,#349,#350,#351,#352,#353,#354));
#356=DERIVED_UNIT_ELEMENT(#358,1.);
#357=DERIVED_UNIT_ELEMENT(#591,3.);
#358=(
MASS_UNIT()
NAMED_UNIT(*)
SI_UNIT($,.GRAM.)
);
#359=DERIVED_UNIT((#356,#357));
#360=MEASURE_REPRESENTATION_ITEM('density measure',
POSITIVE_RATIO_MEASURE(7.86),#359);
#361=PROPERTY_DEFINITION_REPRESENTATION(#366,#363);
#362=PROPERTY_DEFINITION_REPRESENTATION(#367,#364);
#363=REPRESENTATION('material name',(#365),#588);
#364=REPRESENTATION('density',(#360),#588);
#365=DESCRIPTIVE_REPRESENTATION_ITEM('S235JR','S235JR');
#366=PROPERTY_DEFINITION('material property','material name',#598);
#367=PROPERTY_DEFINITION('material property','density of part',#598);
#368=DATE_TIME_ROLE('creation_date');
#369=CC_DESIGN_DATE_AND_TIME_ASSIGNMENT(#370,#368,(#598));
#370=DATE_AND_TIME(#371,#372);
#371=CALENDAR_DATE(2012,19,7);
#372=LOCAL_TIME(7,18,43.,#373);
#373=COORDINATED_UNIVERSAL_TIME_OFFSET(0,0,.BEHIND.);
#374=AXIS2_PLACEMENT_3D('placement',#487,#397,#398);
#375=AXIS2_PLACEMENT_3D('',#488,#399,#400);
#376=AXIS2_PLACEMENT_3D('',#497,#405,#406);
#377=AXIS2_PLACEMENT_3D('',#503,#410,#411);
#378=AXIS2_PLACEMENT_3D('',#512,#416,#417);
#379=AXIS2_PLACEMENT_3D('',#518,#421,#422);
#380=AXIS2_PLACEMENT_3D('',#522,#424,#425);
#381=AXIS2_PLACEMENT_3D('',#534,#431,#432);
#382=AXIS2_PLACEMENT_3D('',#541,#437,#438);
#383=AXIS2_PLACEMENT_3D('',#545,#441,#442);
#384=AXIS2_PLACEMENT_3D('',#547,#444,#445);
#385=AXIS2_PLACEMENT_3D('',#551,#448,#449);
#386=AXIS2_PLACEMENT_3D('',#555,#452,#453);
#387=AXIS2_PLACEMENT_3D('',#558,#455,#456);
#388=AXIS2_PLACEMENT_3D('',#559,#457,#458);
#389=AXIS2_PLACEMENT_3D('',#563,#461,#462);
#390=AXIS2_PLACEMENT_3D('',#567,#465,#466);
#391=AXIS2_PLACEMENT_3D('',#571,#469,#470);
#392=AXIS2_PLACEMENT_3D('',#575,#473,#474);
#393=AXIS2_PLACEMENT_3D('',#579,#477,#478);
#394=AXIS2_PLACEMENT_3D('',#582,#480,#481);
#395=AXIS2_PLACEMENT_3D('',#583,#482,#483);
#396=AXIS2_PLACEMENT_3D('',#585,#485,#486);
#397=DIRECTION('axis',(0.,0.,1.));
#398=DIRECTION('refdir',(1.,0.,0.));
#399=DIRECTION('center_axis',(0.,0.,-1.));
#400=DIRECTION('ref_axis',(0.,-1.,0.));
#401=DIRECTION('',(0.,1.,0.));
#402=DIRECTION('',(-1.,0.,0.));
#403=DIRECTION('',(0.,-1.,0.));
#404=DIRECTION('',(1.,0.,0.));
#405=DIRECTION('center_axis',(0.,-1.,0.));
#406=DIRECTION('ref_axis',(0.,0.,1.));
#407=DIRECTION('',(0.,0.,1.));
#408=DIRECTION('',(1.,0.,0.));
#409=DIRECTION('',(0.,0.,1.));
#410=DIRECTION('center_axis',(0.,0.,-1.));
#411=DIRECTION('ref_axis',(0.,-1.,0.));
#412=DIRECTION('',(0.,1.,0.));
#413=DIRECTION('',(-1.,0.,0.));
#414=DIRECTION('',(0.,-1.,0.));
#415=DIRECTION('',(-1.,0.,0.));
#416=DIRECTION('center_axis',(0.,-0.361204867001051,0.932486484649913));
#417=DIRECTION('ref_axis',(1.,0.,0.));
#418=DIRECTION('',(0.,-0.932486484649913,-0.361204867001051));
#419=DIRECTION('',(1.,0.,0.));
#420=DIRECTION('',(0.,0.932486484649913,0.361204867001051));
#421=DIRECTION('center_axis',(1.,0.,0.));
#422=DIRECTION('ref_axis',(0.,0.,-1.));
#423=DIRECTION('',(0.,1.,0.));
#424=DIRECTION('center_axis',(-1.,0.,0.));
#425=DIRECTION('ref_axis',(0.,1.82964754458259E-13,1.));
#426=DIRECTION('',(0.,0.,1.));
#427=DIRECTION('',(0.,-0.20411062254464,0.978947829950319));
#428=DIRECTION('',(0.,-1.,0.));
#429=DIRECTION('',(0.,-0.20457963407407,-0.978849923799414));
#430=DIRECTION('',(0.,0.,-1.));
#431=DIRECTION('center_axis',(-1.,0.,0.));
#432=DIRECTION('ref_axis',(0.,1.,-1.82964754458259E-13));
#433=DIRECTION('',(0.,1.,0.));
#434=DIRECTION('',(0.,0.,1.));
#435=DIRECTION('',(0.,1.,0.));
#436=DIRECTION('',(0.,0.932486484649913,-0.361204867001051));
#437=DIRECTION('center_axis',(0.,0.361204867001051,0.932486484649913));
#438=DIRECTION('ref_axis',(1.,0.,0.));
#439=DIRECTION('',(1.,0.,0.));
#440=DIRECTION('',(0.,-0.932486484649913,0.361204867001051));
#441=DIRECTION('center_axis',(0.,0.,1.));
#442=DIRECTION('ref_axis',(1.,0.,0.));
#443=DIRECTION('',(0.,-1.,0.));
#444=DIRECTION('center_axis',(0.,-1.,0.));
#445=DIRECTION('ref_axis',(0.,0.,-1.));
#446=DIRECTION('',(1.,0.,0.));
#447=DIRECTION('',(0.,0.,-1.));
#448=DIRECTION('center_axis',(0.,0.,1.));
#449=DIRECTION('ref_axis',(1.,0.,0.));
#450=DIRECTION('',(1.,0.,0.));
#451=DIRECTION('',(0.,-1.,0.));
#452=DIRECTION('center_axis',(1.,0.,0.));
#453=DIRECTION('ref_axis',(0.,1.,-1.82964754458259E-13));
#454=DIRECTION('',(1.,0.,0.));
#455=DIRECTION('center_axis',(1.,0.,0.));
#456=DIRECTION('ref_axis',(0.,1.,-1.82964754458259E-13));
#457=DIRECTION('center_axis',(0.,1.,0.));
#458=DIRECTION('ref_axis',(0.,0.,1.));
#459=DIRECTION('',(1.,0.,0.));
#460=DIRECTION('',(0.,0.,1.));
#461=DIRECTION('center_axis',(0.,0.978849923799415,-0.20457963407407));
#462=DIRECTION('ref_axis',(0.,0.20457963407407,0.978849923799414));
#463=DIRECTION('',(1.,0.,0.));
#464=DIRECTION('',(0.,0.20457963407407,0.978849923799414));
#465=DIRECTION('center_axis',(0.,0.,-1.));
#466=DIRECTION('ref_axis',(-1.,0.,0.));
#467=DIRECTION('',(1.,0.,0.));
#468=DIRECTION('',(0.,1.,0.));
#469=DIRECTION('center_axis',(0.,-0.978947829950319,-0.20411062254464));
#470=DIRECTION('ref_axis',(0.,0.20411062254464,-0.978947829950319));
#471=DIRECTION('',(1.,0.,0.));
#472=DIRECTION('',(0.,0.20411062254464,-0.978947829950319));
#473=DIRECTION('center_axis',(0.,-1.,0.));
#474=DIRECTION('ref_axis',(0.,0.,-1.));
#475=DIRECTION('',(1.,0.,0.));
#476=DIRECTION('',(0.,0.,-1.));
#477=DIRECTION('center_axis',(1.,0.,0.));
#478=DIRECTION('ref_axis',(0.,1.82964754458259E-13,1.));
#479=DIRECTION('',(1.,0.,0.));
#480=DIRECTION('center_axis',(1.,0.,0.));
#481=DIRECTION('ref_axis',(0.,1.82964754458259E-13,1.));
#482=DIRECTION('center_axis',(0.,0.,1.));
#483=DIRECTION('ref_axis',(1.,0.,0.));
#484=DIRECTION('',(0.,-1.,0.));
#485=DIRECTION('center_axis',(1.,0.,0.));
#486=DIRECTION('ref_axis',(0.,0.,-1.));
#487=CARTESIAN_POINT('',(0.,0.,0.));
#488=CARTESIAN_POINT('Origin',(1000.,-40.79988,15.));
#489=CARTESIAN_POINT('',(0.,-46.499,15.));
#490=CARTESIAN_POINT('',(0.,-40.79988,15.));
#491=CARTESIAN_POINT('',(0.,-20.3995019139503,15.));
#492=CARTESIAN_POINT('',(1000.,-46.499,15.));
#493=CARTESIAN_POINT('',(1000.,-46.499,15.));
#494=CARTESIAN_POINT('',(1000.,-40.79988,15.));
#495=CARTESIAN_POINT('',(1000.,-20.3995019139503,15.));
#496=CARTESIAN_POINT('',(500.,-40.79988,15.));
#497=CARTESIAN_POINT('Origin',(1000.,-46.499,15.));
#498=CARTESIAN_POINT('',(0.,-46.499,51.));
#499=CARTESIAN_POINT('',(0.,-46.499,15.7));
#500=CARTESIAN_POINT('',(1000.,-46.499,51.));
#501=CARTESIAN_POINT('',(0.,-46.499,51.));
#502=CARTESIAN_POINT('',(1000.,-46.499,16.6063271318123));
#503=CARTESIAN_POINT('Origin',(1000.,46.501,15.));
#504=CARTESIAN_POINT('',(0.,40.80188,15.));
#505=CARTESIAN_POINT('',(0.,46.501,15.));
#506=CARTESIAN_POINT('',(0.,23.2509380860497,15.));
#507=CARTESIAN_POINT('',(1000.,40.80188,15.));
#508=CARTESIAN_POINT('',(500.,40.80188,15.));
#509=CARTESIAN_POINT('',(1000.,46.501,15.));
#510=CARTESIAN_POINT('',(1000.,23.2509380860497,15.));
#511=CARTESIAN_POINT('',(1000.,46.501,15.));
#512=CARTESIAN_POINT('Origin',(0.,29.701,10.7));
#513=CARTESIAN_POINT('',(0.,29.701,10.7));
#514=CARTESIAN_POINT('',(0.,42.609,15.7));
#515=CARTESIAN_POINT('',(1000.,29.701,10.7));
#516=CARTESIAN_POINT('',(0.,29.701,10.7));
#517=CARTESIAN_POINT('',(1000.,42.609,15.7));
#518=CARTESIAN_POINT('Origin',(1000.,0.000876172099371075,18.2126542636246));
#519=CARTESIAN_POINT('',(1000.,-62.699,51.));
#520=CARTESIAN_POINT('',(1000.,-46.499,51.));
#521=CARTESIAN_POINT('',(1000.,-67.699,46.));
#522=CARTESIAN_POINT('Origin',(1000.,-62.6990000000009,46.0000000000009));
#523=CARTESIAN_POINT('',(1000.,-67.699,2.));
#524=CARTESIAN_POINT('',(1000.,-67.699,46.));
#525=CARTESIAN_POINT('',(1000.,-67.282,0.));
#526=CARTESIAN_POINT('',(1000.,-67.699,2.));
#527=CARTESIAN_POINT('',(1000.,67.283,0.));
#528=CARTESIAN_POINT('',(1000.,-67.282,0.));
#529=CARTESIAN_POINT('',(1000.,67.701,2.));
#530=CARTESIAN_POINT('',(1000.,67.283,0.));
#531=CARTESIAN_POINT('',(1000.,67.701,46.));
#532=CARTESIAN_POINT('',(1000.,67.701,2.));
#533=CARTESIAN_POINT('',(1000.,62.701,51.));
#534=CARTESIAN_POINT('Origin',(1000.,62.7010000000009,46.0000000000009));
#535=CARTESIAN_POINT('',(1000.,46.501,51.));
#536=CARTESIAN_POINT('',(1000.,62.701,51.));
#537=CARTESIAN_POINT('',(1000.,46.501,51.));
#538=CARTESIAN_POINT('',(1000.,-29.699,10.7));
#539=CARTESIAN_POINT('',(1000.,29.701,10.7));
#540=CARTESIAN_POINT('',(1000.,-29.699,10.7));
#541=CARTESIAN_POINT('Origin',(0.,-42.607,15.7));
#542=CARTESIAN_POINT('',(0.,-29.699,10.7));
#543=CARTESIAN_POINT('',(0.,-29.699,10.7));
#544=CARTESIAN_POINT('',(0.,-29.699,10.7));
#545=CARTESIAN_POINT('Origin',(0.,-29.699,10.7));
#546=CARTESIAN_POINT('',(0.,29.701,10.7));
#547=CARTESIAN_POINT('Origin',(0.,46.501,15.7));
#548=CARTESIAN_POINT('',(0.,46.501,51.));
#549=CARTESIAN_POINT('',(0.,46.501,51.));
#550=CARTESIAN_POINT('',(0.,46.501,51.));
#551=CARTESIAN_POINT('Origin',(0.,46.501,51.));
#552=CARTESIAN_POINT('',(0.,62.701,51.));
#553=CARTESIAN_POINT('',(0.,62.701,51.));
#554=CARTESIAN_POINT('',(0.,62.701,51.));
#555=CARTESIAN_POINT('Origin',(0.,62.7010000000009,46.0000000000009));
#556=CARTESIAN_POINT('',(0.,67.701,46.));
#557=CARTESIAN_POINT('',(0.,67.701,46.));
#558=CARTESIAN_POINT('Origin',(0.,62.7010000000009,46.0000000000009));
#559=CARTESIAN_POINT('Origin',(0.,67.701,46.));
#560=CARTESIAN_POINT('',(0.,67.701,2.));
#561=CARTESIAN_POINT('',(0.,67.701,2.));
#562=CARTESIAN_POINT('',(0.,67.701,2.));
#563=CARTESIAN_POINT('Origin',(0.,67.701,2.));
#564=CARTESIAN_POINT('',(0.,67.283,0.));
#565=CARTESIAN_POINT('',(0.,67.283,0.));
#566=CARTESIAN_POINT('',(0.,67.283,0.));
#567=CARTESIAN_POINT('Origin',(0.,67.283,0.));
#568=CARTESIAN_POINT('',(0.,-67.282,0.));
#569=CARTESIAN_POINT('',(0.,-67.282,0.));
#570=CARTESIAN_POINT('',(0.,-67.282,0.));
#571=CARTESIAN_POINT('Origin',(0.,-67.282,0.));
#572=CARTESIAN_POINT('',(0.,-67.699,2.));
#573=CARTESIAN_POINT('',(0.,-67.699,2.));
#574=CARTESIAN_POINT('',(0.,-67.699,2.));
#575=CARTESIAN_POINT('Origin',(0.,-67.699,2.));
#576=CARTESIAN_POINT('',(0.,-67.699,46.));
#577=CARTESIAN_POINT('',(0.,-67.699,46.));
#578=CARTESIAN_POINT('',(0.,-67.699,46.));
#579=CARTESIAN_POINT('Origin',(0.,-62.6990000000009,46.0000000000009));
#580=CARTESIAN_POINT('',(0.,-62.699,51.));
#581=CARTESIAN_POINT('',(0.,-62.699,51.));
#582=CARTESIAN_POINT('Origin',(0.,-62.6990000000009,46.0000000000009));
#583=CARTESIAN_POINT('Origin',(0.,-62.699,51.));
#584=CARTESIAN_POINT('',(0.,-46.499,51.));
#585=CARTESIAN_POINT('Origin',(0.,0.000876172099367883,18.2126542636246));
#586=UNCERTAINTY_MEASURE_WITH_UNIT(LENGTH_MEASURE(0.01),#590,
'DISTANCE_ACCURACY_VALUE',
'Maximum model space distance between geometric entities at asserted c
onnectivities');
#587=UNCERTAINTY_MEASURE_WITH_UNIT(LENGTH_MEASURE(0.01),#590,
'DISTANCE_ACCURACY_VALUE',
'Maximum model space distance between geometric entities at asserted c
onnectivities');
#588=(
GEOMETRIC_REPRESENTATION_CONTEXT(3)
GLOBAL_UNCERTAINTY_ASSIGNED_CONTEXT((#586))
GLOBAL_UNIT_ASSIGNED_CONTEXT((#590,#592,#593))
REPRESENTATION_CONTEXT('','3D')
);
#589=(
GEOMETRIC_REPRESENTATION_CONTEXT(3)
GLOBAL_UNCERTAINTY_ASSIGNED_CONTEXT((#587))
GLOBAL_UNIT_ASSIGNED_CONTEXT((#590,#592,#593))
REPRESENTATION_CONTEXT('','3D')
);
#590=(
LENGTH_UNIT()
NAMED_UNIT(*)
SI_UNIT(.MILLI.,.METRE.)
);
#591=(
LENGTH_UNIT()
NAMED_UNIT(*)
SI_UNIT(.CENTI.,.METRE.)
);
#592=(
NAMED_UNIT(*)
PLANE_ANGLE_UNIT()
SI_UNIT($,.RADIAN.)
);
#593=(
NAMED_UNIT(*)
SI_UNIT($,.STERADIAN.)
SOLID_ANGLE_UNIT()
);
#594=SHAPE_DEFINITION_REPRESENTATION(#595,#596);
#595=PRODUCT_DEFINITION_SHAPE('',$,#598);
#596=SHAPE_REPRESENTATION('',(#374),#588);
#597=DESIGN_CONTEXT('part definition',#602,'design');
#598=PRODUCT_DEFINITION('UP 090.0760','UP 090.0760',#599,#597);
#599=PRODUCT_DEFINITION_FORMATION('',$,#604);
#600=PRODUCT_RELATED_PRODUCT_CATEGORY('UP 090.0760','UP 090.0760',(#604));
#601=APPLICATION_PROTOCOL_DEFINITION('international standard',
'ap203_configuration_controlled_3d_design_of_mechanical_parts_and_asse
mblies_mim_lf',2004,#602);
#602=APPLICATION_CONTEXT(
'Configuration Controlled 3D Design of Mechanical Parts and Assemblies');
#603=MECHANICAL_CONTEXT('part definition',#602,'mechanical');
#604=PRODUCT('UP 090.0760','UP 090.0760',
'U-Pr\X\E4zisions-F\X\FChrungsprofil',(#603));
#605=PRESENTATION_STYLE_ASSIGNMENT((#606));
#606=SURFACE_STYLE_USAGE(.BOTH.,#609);
#607=SURFACE_STYLE_RENDERING_WITH_PROPERTIES($,#613,(#608));
#608=SURFACE_STYLE_TRANSPARENT(0.);
#609=SURFACE_SIDE_STYLE('',(#610,#607));
#610=SURFACE_STYLE_FILL_AREA(#611);
#611=FILL_AREA_STYLE('',(#612));
#612=FILL_AREA_STYLE_COLOUR('',#613);
#613=COLOUR_RGB('',0.87843137254902,0.874509803921569,0.858823529411765);
ENDSEC;
END-ISO-10303-21;
