ISO-10303-21;
HEADER;
/* Generated by software containing ST-Developer
 * from STEP Tools, Inc. (www.steptools.com) 
 */

FILE_DESCRIPTION(
/* description */ ('U-Pr\X\E4zisions-F\X\FChrungsprofil'),
/* implementation_level */ '2;1');

FILE_NAME(
/* name */ 
'C:\\VAULT_WORKSPACE\\Projekte\\Werksnorm\\Profile\\UP xxx.0760\\ALFAT
EC_UP110.0760.stp',
/* time_stamp */ '2020-03-21T16:02:09+01:00',
/* author */ ('hipp'),
/* organization */ (''),
/* preprocessor_version */ 'ST-DEVELOPER v18',
/* originating_system */ 'Autodesk Inventor 2020',
/* authorisation */ '');

FILE_SCHEMA (('CONFIG_CONTROL_DESIGN'));
ENDSEC;

DATA;
#10=MECHANICAL_DESIGN_GEOMETRIC_PRESENTATION_REPRESENTATION('',(#13),#593);
#11=SHAPE_REPRESENTATION_RELATIONSHIP('SRR','None',#600,#12);
#12=ADVANCED_BREP_SHAPE_REPRESENTATION('',(#14),#592);
#13=STYLED_ITEM('',(#609),#14);
#14=MANIFOLD_SOLID_BREP('Volumenk\X\F6rper1',#351);
#15=CIRCLE('',#381,5.00000000000068);
#16=CIRCLE('',#382,5.00000000000068);
#17=CIRCLE('',#385,4.99999999996269);
#18=CIRCLE('',#386,4.99999999996269);
#19=CIRCLE('',#389,4.9999999999739);
#20=CIRCLE('',#390,4.9999999999739);
#21=CIRCLE('',#393,4.99999999999909);
#22=CIRCLE('',#394,4.99999999999909);
#23=CYLINDRICAL_SURFACE('',#380,5.00000000000068);
#24=CYLINDRICAL_SURFACE('',#384,4.99999999996269);
#25=CYLINDRICAL_SURFACE('',#388,4.9999999999739);
#26=CYLINDRICAL_SURFACE('',#392,4.99999999999909);
#27=FACE_OUTER_BOUND('',#45,.T.);
#28=FACE_OUTER_BOUND('',#46,.T.);
#29=FACE_OUTER_BOUND('',#47,.T.);
#30=FACE_OUTER_BOUND('',#48,.T.);
#31=FACE_OUTER_BOUND('',#49,.T.);
#32=FACE_OUTER_BOUND('',#50,.T.);
#33=FACE_OUTER_BOUND('',#51,.T.);
#34=FACE_OUTER_BOUND('',#52,.T.);
#35=FACE_OUTER_BOUND('',#53,.T.);
#36=FACE_OUTER_BOUND('',#54,.T.);
#37=FACE_OUTER_BOUND('',#55,.T.);
#38=FACE_OUTER_BOUND('',#56,.T.);
#39=FACE_OUTER_BOUND('',#57,.T.);
#40=FACE_OUTER_BOUND('',#58,.T.);
#41=FACE_OUTER_BOUND('',#59,.T.);
#42=FACE_OUTER_BOUND('',#60,.T.);
#43=FACE_OUTER_BOUND('',#61,.T.);
#44=FACE_OUTER_BOUND('',#62,.T.);
#45=EDGE_LOOP('',(#223,#224,#225,#226));
#46=EDGE_LOOP('',(#227,#228,#229,#230));
#47=EDGE_LOOP('',(#231,#232,#233,#234));
#48=EDGE_LOOP('',(#235,#236,#237,#238));
#49=EDGE_LOOP('',(#239,#240,#241,#242));
#50=EDGE_LOOP('',(#243,#244,#245,#246));
#51=EDGE_LOOP('',(#247,#248,#249,#250));
#52=EDGE_LOOP('',(#251,#252,#253,#254));
#53=EDGE_LOOP('',(#255,#256,#257,#258));
#54=EDGE_LOOP('',(#259,#260,#261,#262));
#55=EDGE_LOOP('',(#263,#264,#265,#266));
#56=EDGE_LOOP('',(#267,#268,#269,#270));
#57=EDGE_LOOP('',(#271,#272,#273,#274));
#58=EDGE_LOOP('',(#275,#276,#277,#278));
#59=EDGE_LOOP('',(#279,#280,#281,#282));
#60=EDGE_LOOP('',(#283,#284,#285,#286));
#61=EDGE_LOOP('',(#287,#288,#289,#290,#291,#292,#293,#294,#295,#296,#297,
#298,#299,#300,#301,#302));
#62=EDGE_LOOP('',(#303,#304,#305,#306,#307,#308,#309,#310,#311,#312,#313,
#314,#315,#316,#317,#318));
#63=LINE('',#495,#103);
#64=LINE('',#497,#104);
#65=LINE('',#499,#105);
#66=LINE('',#500,#106);
#67=LINE('',#503,#107);
#68=LINE('',#505,#108);
#69=LINE('',#506,#109);
#70=LINE('',#509,#110);
#71=LINE('',#511,#111);
#72=LINE('',#512,#112);
#73=LINE('',#515,#113);
#74=LINE('',#517,#114);
#75=LINE('',#518,#115);
#76=LINE('',#521,#116);
#77=LINE('',#523,#117);
#78=LINE('',#524,#118);
#79=LINE('',#527,#119);
#80=LINE('',#529,#120);
#81=LINE('',#530,#121);
#82=LINE('',#533,#122);
#83=LINE('',#535,#123);
#84=LINE('',#536,#124);
#85=LINE('',#539,#125);
#86=LINE('',#541,#126);
#87=LINE('',#542,#127);
#88=LINE('',#545,#128);
#89=LINE('',#547,#129);
#90=LINE('',#548,#130);
#91=LINE('',#553,#131);
#92=LINE('',#557,#132);
#93=LINE('',#559,#133);
#94=LINE('',#560,#134);
#95=LINE('',#565,#135);
#96=LINE('',#569,#136);
#97=LINE('',#571,#137);
#98=LINE('',#572,#138);
#99=LINE('',#577,#139);
#100=LINE('',#581,#140);
#101=LINE('',#583,#141);
#102=LINE('',#584,#142);
#103=VECTOR('',#401,10.);
#104=VECTOR('',#402,10.);
#105=VECTOR('',#403,10.);
#106=VECTOR('',#404,10.);
#107=VECTOR('',#407,10.);
#108=VECTOR('',#408,10.);
#109=VECTOR('',#409,10.);
#110=VECTOR('',#412,10.);
#111=VECTOR('',#413,10.);
#112=VECTOR('',#414,10.);
#113=VECTOR('',#417,10.);
#114=VECTOR('',#418,10.);
#115=VECTOR('',#419,10.);
#116=VECTOR('',#422,10.);
#117=VECTOR('',#423,10.);
#118=VECTOR('',#424,10.);
#119=VECTOR('',#427,10.);
#120=VECTOR('',#428,10.);
#121=VECTOR('',#429,10.);
#122=VECTOR('',#432,10.);
#123=VECTOR('',#433,10.);
#124=VECTOR('',#434,10.);
#125=VECTOR('',#437,10.);
#126=VECTOR('',#438,10.);
#127=VECTOR('',#439,10.);
#128=VECTOR('',#442,10.);
#129=VECTOR('',#443,10.);
#130=VECTOR('',#444,10.);
#131=VECTOR('',#449,10.);
#132=VECTOR('',#454,10.);
#133=VECTOR('',#455,10.);
#134=VECTOR('',#456,10.);
#135=VECTOR('',#461,10.);
#136=VECTOR('',#466,10.);
#137=VECTOR('',#467,10.);
#138=VECTOR('',#468,10.);
#139=VECTOR('',#473,10.);
#140=VECTOR('',#478,10.);
#141=VECTOR('',#479,10.);
#142=VECTOR('',#480,10.);
#143=VERTEX_POINT('',#493);
#144=VERTEX_POINT('',#494);
#145=VERTEX_POINT('',#496);
#146=VERTEX_POINT('',#498);
#147=VERTEX_POINT('',#502);
#148=VERTEX_POINT('',#504);
#149=VERTEX_POINT('',#508);
#150=VERTEX_POINT('',#510);
#151=VERTEX_POINT('',#514);
#152=VERTEX_POINT('',#516);
#153=VERTEX_POINT('',#520);
#154=VERTEX_POINT('',#522);
#155=VERTEX_POINT('',#526);
#156=VERTEX_POINT('',#528);
#157=VERTEX_POINT('',#532);
#158=VERTEX_POINT('',#534);
#159=VERTEX_POINT('',#538);
#160=VERTEX_POINT('',#540);
#161=VERTEX_POINT('',#544);
#162=VERTEX_POINT('',#546);
#163=VERTEX_POINT('',#550);
#164=VERTEX_POINT('',#552);
#165=VERTEX_POINT('',#556);
#166=VERTEX_POINT('',#558);
#167=VERTEX_POINT('',#562);
#168=VERTEX_POINT('',#564);
#169=VERTEX_POINT('',#568);
#170=VERTEX_POINT('',#570);
#171=VERTEX_POINT('',#574);
#172=VERTEX_POINT('',#576);
#173=VERTEX_POINT('',#580);
#174=VERTEX_POINT('',#582);
#175=EDGE_CURVE('',#143,#144,#63,.T.);
#176=EDGE_CURVE('',#145,#144,#64,.T.);
#177=EDGE_CURVE('',#145,#146,#65,.T.);
#178=EDGE_CURVE('',#146,#143,#66,.T.);
#179=EDGE_CURVE('',#144,#147,#67,.T.);
#180=EDGE_CURVE('',#148,#147,#68,.T.);
#181=EDGE_CURVE('',#148,#145,#69,.T.);
#182=EDGE_CURVE('',#147,#149,#70,.T.);
#183=EDGE_CURVE('',#150,#149,#71,.T.);
#184=EDGE_CURVE('',#150,#148,#72,.T.);
#185=EDGE_CURVE('',#149,#151,#73,.T.);
#186=EDGE_CURVE('',#152,#151,#74,.T.);
#187=EDGE_CURVE('',#152,#150,#75,.T.);
#188=EDGE_CURVE('',#151,#153,#76,.T.);
#189=EDGE_CURVE('',#154,#153,#77,.T.);
#190=EDGE_CURVE('',#154,#152,#78,.T.);
#191=EDGE_CURVE('',#153,#155,#79,.T.);
#192=EDGE_CURVE('',#156,#155,#80,.T.);
#193=EDGE_CURVE('',#156,#154,#81,.T.);
#194=EDGE_CURVE('',#155,#157,#82,.T.);
#195=EDGE_CURVE('',#158,#157,#83,.T.);
#196=EDGE_CURVE('',#158,#156,#84,.T.);
#197=EDGE_CURVE('',#157,#159,#85,.T.);
#198=EDGE_CURVE('',#160,#159,#86,.T.);
#199=EDGE_CURVE('',#160,#158,#87,.T.);
#200=EDGE_CURVE('',#159,#161,#88,.T.);
#201=EDGE_CURVE('',#162,#161,#89,.T.);
#202=EDGE_CURVE('',#162,#160,#90,.T.);
#203=EDGE_CURVE('',#161,#163,#15,.T.);
#204=EDGE_CURVE('',#164,#163,#91,.T.);
#205=EDGE_CURVE('',#164,#162,#16,.T.);
#206=EDGE_CURVE('',#163,#165,#92,.T.);
#207=EDGE_CURVE('',#166,#165,#93,.T.);
#208=EDGE_CURVE('',#166,#164,#94,.T.);
#209=EDGE_CURVE('',#165,#167,#17,.T.);
#210=EDGE_CURVE('',#168,#167,#95,.T.);
#211=EDGE_CURVE('',#168,#166,#18,.T.);
#212=EDGE_CURVE('',#167,#169,#96,.T.);
#213=EDGE_CURVE('',#170,#169,#97,.T.);
#214=EDGE_CURVE('',#170,#168,#98,.T.);
#215=EDGE_CURVE('',#169,#171,#19,.T.);
#216=EDGE_CURVE('',#172,#171,#99,.T.);
#217=EDGE_CURVE('',#172,#170,#20,.T.);
#218=EDGE_CURVE('',#171,#173,#100,.T.);
#219=EDGE_CURVE('',#174,#173,#101,.T.);
#220=EDGE_CURVE('',#174,#172,#102,.T.);
#221=EDGE_CURVE('',#173,#143,#21,.T.);
#222=EDGE_CURVE('',#146,#174,#22,.T.);
#223=ORIENTED_EDGE('',*,*,#175,.T.);
#224=ORIENTED_EDGE('',*,*,#176,.F.);
#225=ORIENTED_EDGE('',*,*,#177,.T.);
#226=ORIENTED_EDGE('',*,*,#178,.T.);
#227=ORIENTED_EDGE('',*,*,#179,.T.);
#228=ORIENTED_EDGE('',*,*,#180,.F.);
#229=ORIENTED_EDGE('',*,*,#181,.T.);
#230=ORIENTED_EDGE('',*,*,#176,.T.);
#231=ORIENTED_EDGE('',*,*,#182,.T.);
#232=ORIENTED_EDGE('',*,*,#183,.F.);
#233=ORIENTED_EDGE('',*,*,#184,.T.);
#234=ORIENTED_EDGE('',*,*,#180,.T.);
#235=ORIENTED_EDGE('',*,*,#185,.T.);
#236=ORIENTED_EDGE('',*,*,#186,.F.);
#237=ORIENTED_EDGE('',*,*,#187,.T.);
#238=ORIENTED_EDGE('',*,*,#183,.T.);
#239=ORIENTED_EDGE('',*,*,#188,.T.);
#240=ORIENTED_EDGE('',*,*,#189,.F.);
#241=ORIENTED_EDGE('',*,*,#190,.T.);
#242=ORIENTED_EDGE('',*,*,#186,.T.);
#243=ORIENTED_EDGE('',*,*,#191,.T.);
#244=ORIENTED_EDGE('',*,*,#192,.F.);
#245=ORIENTED_EDGE('',*,*,#193,.T.);
#246=ORIENTED_EDGE('',*,*,#189,.T.);
#247=ORIENTED_EDGE('',*,*,#194,.T.);
#248=ORIENTED_EDGE('',*,*,#195,.F.);
#249=ORIENTED_EDGE('',*,*,#196,.T.);
#250=ORIENTED_EDGE('',*,*,#192,.T.);
#251=ORIENTED_EDGE('',*,*,#197,.T.);
#252=ORIENTED_EDGE('',*,*,#198,.F.);
#253=ORIENTED_EDGE('',*,*,#199,.T.);
#254=ORIENTED_EDGE('',*,*,#195,.T.);
#255=ORIENTED_EDGE('',*,*,#200,.T.);
#256=ORIENTED_EDGE('',*,*,#201,.F.);
#257=ORIENTED_EDGE('',*,*,#202,.T.);
#258=ORIENTED_EDGE('',*,*,#198,.T.);
#259=ORIENTED_EDGE('',*,*,#203,.T.);
#260=ORIENTED_EDGE('',*,*,#204,.F.);
#261=ORIENTED_EDGE('',*,*,#205,.T.);
#262=ORIENTED_EDGE('',*,*,#201,.T.);
#263=ORIENTED_EDGE('',*,*,#206,.T.);
#264=ORIENTED_EDGE('',*,*,#207,.F.);
#265=ORIENTED_EDGE('',*,*,#208,.T.);
#266=ORIENTED_EDGE('',*,*,#204,.T.);
#267=ORIENTED_EDGE('',*,*,#209,.T.);
#268=ORIENTED_EDGE('',*,*,#210,.F.);
#269=ORIENTED_EDGE('',*,*,#211,.T.);
#270=ORIENTED_EDGE('',*,*,#207,.T.);
#271=ORIENTED_EDGE('',*,*,#212,.T.);
#272=ORIENTED_EDGE('',*,*,#213,.F.);
#273=ORIENTED_EDGE('',*,*,#214,.T.);
#274=ORIENTED_EDGE('',*,*,#210,.T.);
#275=ORIENTED_EDGE('',*,*,#215,.T.);
#276=ORIENTED_EDGE('',*,*,#216,.F.);
#277=ORIENTED_EDGE('',*,*,#217,.T.);
#278=ORIENTED_EDGE('',*,*,#213,.T.);
#279=ORIENTED_EDGE('',*,*,#218,.T.);
#280=ORIENTED_EDGE('',*,*,#219,.F.);
#281=ORIENTED_EDGE('',*,*,#220,.T.);
#282=ORIENTED_EDGE('',*,*,#216,.T.);
#283=ORIENTED_EDGE('',*,*,#221,.T.);
#284=ORIENTED_EDGE('',*,*,#178,.F.);
#285=ORIENTED_EDGE('',*,*,#222,.T.);
#286=ORIENTED_EDGE('',*,*,#219,.T.);
#287=ORIENTED_EDGE('',*,*,#222,.F.);
#288=ORIENTED_EDGE('',*,*,#177,.F.);
#289=ORIENTED_EDGE('',*,*,#181,.F.);
#290=ORIENTED_EDGE('',*,*,#184,.F.);
#291=ORIENTED_EDGE('',*,*,#187,.F.);
#292=ORIENTED_EDGE('',*,*,#190,.F.);
#293=ORIENTED_EDGE('',*,*,#193,.F.);
#294=ORIENTED_EDGE('',*,*,#196,.F.);
#295=ORIENTED_EDGE('',*,*,#199,.F.);
#296=ORIENTED_EDGE('',*,*,#202,.F.);
#297=ORIENTED_EDGE('',*,*,#205,.F.);
#298=ORIENTED_EDGE('',*,*,#208,.F.);
#299=ORIENTED_EDGE('',*,*,#211,.F.);
#300=ORIENTED_EDGE('',*,*,#214,.F.);
#301=ORIENTED_EDGE('',*,*,#217,.F.);
#302=ORIENTED_EDGE('',*,*,#220,.F.);
#303=ORIENTED_EDGE('',*,*,#175,.F.);
#304=ORIENTED_EDGE('',*,*,#221,.F.);
#305=ORIENTED_EDGE('',*,*,#218,.F.);
#306=ORIENTED_EDGE('',*,*,#215,.F.);
#307=ORIENTED_EDGE('',*,*,#212,.F.);
#308=ORIENTED_EDGE('',*,*,#209,.F.);
#309=ORIENTED_EDGE('',*,*,#206,.F.);
#310=ORIENTED_EDGE('',*,*,#203,.F.);
#311=ORIENTED_EDGE('',*,*,#200,.F.);
#312=ORIENTED_EDGE('',*,*,#197,.F.);
#313=ORIENTED_EDGE('',*,*,#194,.F.);
#314=ORIENTED_EDGE('',*,*,#191,.F.);
#315=ORIENTED_EDGE('',*,*,#188,.F.);
#316=ORIENTED_EDGE('',*,*,#185,.F.);
#317=ORIENTED_EDGE('',*,*,#182,.F.);
#318=ORIENTED_EDGE('',*,*,#179,.F.);
#319=PLANE('',#371);
#320=PLANE('',#372);
#321=PLANE('',#373);
#322=PLANE('',#374);
#323=PLANE('',#375);
#324=PLANE('',#376);
#325=PLANE('',#377);
#326=PLANE('',#378);
#327=PLANE('',#379);
#328=PLANE('',#383);
#329=PLANE('',#387);
#330=PLANE('',#391);
#331=PLANE('',#395);
#332=PLANE('',#396);
#333=ADVANCED_FACE('',(#27),#319,.T.);
#334=ADVANCED_FACE('',(#28),#320,.T.);
#335=ADVANCED_FACE('',(#29),#321,.T.);
#336=ADVANCED_FACE('',(#30),#322,.T.);
#337=ADVANCED_FACE('',(#31),#323,.T.);
#338=ADVANCED_FACE('',(#32),#324,.T.);
#339=ADVANCED_FACE('',(#33),#325,.T.);
#340=ADVANCED_FACE('',(#34),#326,.T.);
#341=ADVANCED_FACE('',(#35),#327,.T.);
#342=ADVANCED_FACE('',(#36),#23,.T.);
#343=ADVANCED_FACE('',(#37),#328,.T.);
#344=ADVANCED_FACE('',(#38),#24,.T.);
#345=ADVANCED_FACE('',(#39),#329,.T.);
#346=ADVANCED_FACE('',(#40),#25,.T.);
#347=ADVANCED_FACE('',(#41),#330,.T.);
#348=ADVANCED_FACE('',(#42),#26,.T.);
#349=ADVANCED_FACE('',(#43),#331,.F.);
#350=ADVANCED_FACE('',(#44),#332,.T.);
#351=CLOSED_SHELL('',(#333,#334,#335,#336,#337,#338,#339,#340,#341,#342,
#343,#344,#345,#346,#347,#348,#349,#350));
#352=DERIVED_UNIT_ELEMENT(#354,1.);
#353=DERIVED_UNIT_ELEMENT(#595,3.);
#354=(
MASS_UNIT()
NAMED_UNIT(*)
SI_UNIT($,.GRAM.)
);
#355=DERIVED_UNIT((#352,#353));
#356=MEASURE_REPRESENTATION_ITEM('density measure',
POSITIVE_RATIO_MEASURE(7.86),#355);
#357=PROPERTY_DEFINITION_REPRESENTATION(#362,#359);
#358=PROPERTY_DEFINITION_REPRESENTATION(#363,#360);
#359=REPRESENTATION('material name',(#361),#592);
#360=REPRESENTATION('density',(#356),#592);
#361=DESCRIPTIVE_REPRESENTATION_ITEM('S235JR','S235JR');
#362=PROPERTY_DEFINITION('material property','material name',#602);
#363=PROPERTY_DEFINITION('material property','density of part',#602);
#364=DATE_TIME_ROLE('creation_date');
#365=CC_DESIGN_DATE_AND_TIME_ASSIGNMENT(#366,#364,(#602));
#366=DATE_AND_TIME(#367,#368);
#367=CALENDAR_DATE(2012,19,7);
#368=LOCAL_TIME(7,19,25.,#369);
#369=COORDINATED_UNIVERSAL_TIME_OFFSET(0,0,.BEHIND.);
#370=AXIS2_PLACEMENT_3D('placement',#491,#397,#398);
#371=AXIS2_PLACEMENT_3D('',#492,#399,#400);
#372=AXIS2_PLACEMENT_3D('',#501,#405,#406);
#373=AXIS2_PLACEMENT_3D('',#507,#410,#411);
#374=AXIS2_PLACEMENT_3D('',#513,#415,#416);
#375=AXIS2_PLACEMENT_3D('',#519,#420,#421);
#376=AXIS2_PLACEMENT_3D('',#525,#425,#426);
#377=AXIS2_PLACEMENT_3D('',#531,#430,#431);
#378=AXIS2_PLACEMENT_3D('',#537,#435,#436);
#379=AXIS2_PLACEMENT_3D('',#543,#440,#441);
#380=AXIS2_PLACEMENT_3D('',#549,#445,#446);
#381=AXIS2_PLACEMENT_3D('',#551,#447,#448);
#382=AXIS2_PLACEMENT_3D('',#554,#450,#451);
#383=AXIS2_PLACEMENT_3D('',#555,#452,#453);
#384=AXIS2_PLACEMENT_3D('',#561,#457,#458);
#385=AXIS2_PLACEMENT_3D('',#563,#459,#460);
#386=AXIS2_PLACEMENT_3D('',#566,#462,#463);
#387=AXIS2_PLACEMENT_3D('',#567,#464,#465);
#388=AXIS2_PLACEMENT_3D('',#573,#469,#470);
#389=AXIS2_PLACEMENT_3D('',#575,#471,#472);
#390=AXIS2_PLACEMENT_3D('',#578,#474,#475);
#391=AXIS2_PLACEMENT_3D('',#579,#476,#477);
#392=AXIS2_PLACEMENT_3D('',#585,#481,#482);
#393=AXIS2_PLACEMENT_3D('',#586,#483,#484);
#394=AXIS2_PLACEMENT_3D('',#587,#485,#486);
#395=AXIS2_PLACEMENT_3D('',#588,#487,#488);
#396=AXIS2_PLACEMENT_3D('',#589,#489,#490);
#397=DIRECTION('axis',(0.,0.,1.));
#398=DIRECTION('refdir',(1.,0.,0.));
#399=DIRECTION('center_axis',(0.,4.01069294349958E-11,1.));
#400=DIRECTION('ref_axis',(1.,0.,0.));
#401=DIRECTION('',(0.,1.,-4.01069294349958E-11));
#402=DIRECTION('',(1.,0.,0.));
#403=DIRECTION('',(0.,-1.,4.01069294349958E-11));
#404=DIRECTION('',(1.,0.,0.));
#405=DIRECTION('center_axis',(0.,1.,-1.20369193290553E-8));
#406=DIRECTION('ref_axis',(0.,1.20369193290553E-8,1.));
#407=DIRECTION('',(0.,-1.20369193290553E-8,-1.));
#408=DIRECTION('',(1.,0.,0.));
#409=DIRECTION('',(0.,1.20369193290553E-8,1.));
#410=DIRECTION('center_axis',(0.,5.50619103677765E-10,1.));
#411=DIRECTION('ref_axis',(1.,0.,0.));
#412=DIRECTION('',(0.,1.,-5.50619103677765E-10));
#413=DIRECTION('',(1.,0.,0.));
#414=DIRECTION('',(0.,-1.,5.50619103677765E-10));
#415=DIRECTION('center_axis',(0.,0.361204503793139,0.932486625340842));
#416=DIRECTION('ref_axis',(1.,0.,0.));
#417=DIRECTION('',(0.,0.932486625340842,-0.361204503793139));
#418=DIRECTION('',(1.,0.,0.));
#419=DIRECTION('',(0.,-0.932486625340842,0.361204503793139));
#420=DIRECTION('center_axis',(0.,1.83943129001759E-11,1.));
#421=DIRECTION('ref_axis',(1.,0.,0.));
#422=DIRECTION('',(0.,1.,-1.83943129001759E-11));
#423=DIRECTION('',(1.,0.,0.));
#424=DIRECTION('',(0.,-1.,1.83943129001759E-11));
#425=DIRECTION('center_axis',(0.,-0.361204503793115,0.932486625340852));
#426=DIRECTION('ref_axis',(1.,0.,0.));
#427=DIRECTION('',(0.,0.932486625340852,0.361204503793115));
#428=DIRECTION('',(1.,0.,0.));
#429=DIRECTION('',(0.,-0.932486625340852,-0.361204503793115));
#430=DIRECTION('center_axis',(0.,-5.50619103677765E-10,1.));
#431=DIRECTION('ref_axis',(1.,0.,0.));
#432=DIRECTION('',(0.,1.,5.50619103677765E-10));
#433=DIRECTION('',(1.,0.,0.));
#434=DIRECTION('',(0.,-1.,-5.50619103677765E-10));
#435=DIRECTION('center_axis',(0.,-1.,-1.20369195395241E-8));
#436=DIRECTION('ref_axis',(0.,1.20369195395241E-8,-1.));
#437=DIRECTION('',(0.,-1.20369195395241E-8,1.));
#438=DIRECTION('',(1.,0.,0.));
#439=DIRECTION('',(0.,1.20369195395241E-8,-1.));
#440=DIRECTION('center_axis',(0.,-4.01069294349957E-11,1.));
#441=DIRECTION('ref_axis',(1.,0.,0.));
#442=DIRECTION('',(0.,1.,4.01069294349957E-11));
#443=DIRECTION('',(1.,0.,0.));
#444=DIRECTION('',(0.,-1.,-4.01069294349957E-11));
#445=DIRECTION('center_axis',(1.,0.,0.));
#446=DIRECTION('ref_axis',(0.,0.998781397735728,0.0493530094023282));
#447=DIRECTION('center_axis',(-1.,0.,0.));
#448=DIRECTION('ref_axis',(0.,0.998781397735728,0.0493530094023282));
#449=DIRECTION('',(1.,0.,0.));
#450=DIRECTION('center_axis',(1.,0.,0.));
#451=DIRECTION('ref_axis',(0.,0.998781397735728,0.0493530094023282));
#452=DIRECTION('center_axis',(0.,1.,0.));
#453=DIRECTION('ref_axis',(0.,0.,1.));
#454=DIRECTION('',(0.,0.,-1.));
#455=DIRECTION('',(1.,0.,0.));
#456=DIRECTION('',(0.,0.,1.));
#457=DIRECTION('center_axis',(1.,0.,0.));
#458=DIRECTION('ref_axis',(0.,0.93295230317474,-0.360000000001316));
#459=DIRECTION('center_axis',(-1.,0.,0.));
#460=DIRECTION('ref_axis',(0.,0.93295230317474,-0.360000000001316));
#461=DIRECTION('',(1.,0.,0.));
#462=DIRECTION('center_axis',(1.,0.,0.));
#463=DIRECTION('ref_axis',(0.,0.93295230317474,-0.360000000001316));
#464=DIRECTION('center_axis',(0.,-2.90529599266077E-15,-1.));
#465=DIRECTION('ref_axis',(-1.,0.,0.));
#466=DIRECTION('',(0.,-1.,2.90529599266077E-15));
#467=DIRECTION('',(1.,0.,0.));
#468=DIRECTION('',(0.,1.,-2.90529599266077E-15));
#469=DIRECTION('center_axis',(1.,0.,0.));
#470=DIRECTION('ref_axis',(0.,-1.,8.68694005622489E-13));
#471=DIRECTION('center_axis',(-1.,0.,0.));
#472=DIRECTION('ref_axis',(0.,-1.,8.68694005622489E-13));
#473=DIRECTION('',(1.,0.,0.));
#474=DIRECTION('center_axis',(1.,0.,0.));
#475=DIRECTION('ref_axis',(0.,-1.,8.68694005622489E-13));
#476=DIRECTION('center_axis',(0.,-1.,0.));
#477=DIRECTION('ref_axis',(0.,0.,-1.));
#478=DIRECTION('',(0.,0.,1.));
#479=DIRECTION('',(1.,0.,0.));
#480=DIRECTION('',(0.,0.,-1.));
#481=DIRECTION('center_axis',(1.,0.,0.));
#482=DIRECTION('ref_axis',(0.,4.03819200300933E-11,1.));
#483=DIRECTION('center_axis',(-1.,0.,0.));
#484=DIRECTION('ref_axis',(0.,4.03819200300933E-11,1.));
#485=DIRECTION('center_axis',(1.,0.,0.));
#486=DIRECTION('ref_axis',(0.,4.03819200300933E-11,1.));
#487=DIRECTION('center_axis',(1.,0.,0.));
#488=DIRECTION('ref_axis',(0.,0.,-1.));
#489=DIRECTION('center_axis',(1.,0.,0.));
#490=DIRECTION('ref_axis',(0.,0.,-1.));
#491=CARTESIAN_POINT('',(0.,0.,0.));
#492=CARTESIAN_POINT('Origin',(0.,-73.599999999799,59.));
#493=CARTESIAN_POINT('',(1000.,-73.599999999799,59.));
#494=CARTESIAN_POINT('',(1000.,-55.996953494339,58.999999999294));
#495=CARTESIAN_POINT('',(1000.,-55.996953494339,58.999999999294));
#496=CARTESIAN_POINT('',(0.,-55.996953494339,58.999999999294));
#497=CARTESIAN_POINT('',(0.,-55.996953494339,58.999999999294));
#498=CARTESIAN_POINT('',(0.,-73.599999999799,59.));
#499=CARTESIAN_POINT('',(0.,-55.996953494339,58.999999999294));
#500=CARTESIAN_POINT('',(0.,-73.599999999799,59.));
#501=CARTESIAN_POINT('Origin',(0.,-55.996953494339,58.999999999294));
#502=CARTESIAN_POINT('',(1000.,-55.996954002297,16.80000000099));
#503=CARTESIAN_POINT('',(1000.,-55.996954002297,16.80000000099));
#504=CARTESIAN_POINT('',(0.,-55.996954002297,16.80000000099));
#505=CARTESIAN_POINT('',(0.,-55.996954002297,16.80000000099));
#506=CARTESIAN_POINT('',(0.,-55.996954002297,16.80000000099));
#507=CARTESIAN_POINT('Origin',(0.,-55.996954002297,16.80000000099));
#508=CARTESIAN_POINT('',(1000.,-52.104968930165,16.799999998847));
#509=CARTESIAN_POINT('',(1000.,-52.104968930165,16.799999998847));
#510=CARTESIAN_POINT('',(0.,-52.104968930165,16.799999998847));
#511=CARTESIAN_POINT('',(0.,-52.104968930165,16.799999998847));
#512=CARTESIAN_POINT('',(0.,-52.104968930165,16.799999998847));
#513=CARTESIAN_POINT('Origin',(0.,-52.104968930165,16.799999998847));
#514=CARTESIAN_POINT('',(1000.,-39.196954002298,11.799999998557));
#515=CARTESIAN_POINT('',(1000.,-39.196954002298,11.799999998557));
#516=CARTESIAN_POINT('',(0.,-39.196954002298,11.799999998557));
#517=CARTESIAN_POINT('',(0.,-39.196954002298,11.799999998557));
#518=CARTESIAN_POINT('',(0.,-39.196954002298,11.799999998557));
#519=CARTESIAN_POINT('Origin',(0.,0.0060930113211271,11.799999999278));
#520=CARTESIAN_POINT('',(1000.,39.203047013619,11.799999998557));
#521=CARTESIAN_POINT('',(1000.,39.203047013619,11.799999998557));
#522=CARTESIAN_POINT('',(0.,39.203047013619,11.799999998557));
#523=CARTESIAN_POINT('',(0.,39.203047013619,11.799999998557));
#524=CARTESIAN_POINT('',(0.,39.203047013619,11.799999998557));
#525=CARTESIAN_POINT('Origin',(0.,39.203047013619,11.799999998557));
#526=CARTESIAN_POINT('',(1000.,52.111061941487,16.799999998847));
#527=CARTESIAN_POINT('',(1000.,52.111061941487,16.799999998847));
#528=CARTESIAN_POINT('',(0.,52.111061941487,16.799999998847));
#529=CARTESIAN_POINT('',(0.,52.111061941487,16.799999998847));
#530=CARTESIAN_POINT('',(0.,52.111061941487,16.799999998847));
#531=CARTESIAN_POINT('Origin',(0.,52.111061941487,16.799999998847));
#532=CARTESIAN_POINT('',(1000.,56.003047013619,16.80000000099));
#533=CARTESIAN_POINT('',(1000.,56.003047013619,16.80000000099));
#534=CARTESIAN_POINT('',(0.,56.003047013619,16.80000000099));
#535=CARTESIAN_POINT('',(0.,56.003047013619,16.80000000099));
#536=CARTESIAN_POINT('',(0.,56.003047013619,16.80000000099));
#537=CARTESIAN_POINT('Origin',(0.,56.003047013619,16.80000000099));
#538=CARTESIAN_POINT('',(1000.,56.003046505661,58.999999999294));
#539=CARTESIAN_POINT('',(1000.,56.003046505661,58.999999999294));
#540=CARTESIAN_POINT('',(0.,56.003046505661,58.999999999294));
#541=CARTESIAN_POINT('',(0.,56.003046505661,58.999999999294));
#542=CARTESIAN_POINT('',(0.,56.003046505661,58.999999999294));
#543=CARTESIAN_POINT('Origin',(0.,56.003046505661,58.999999999294));
#544=CARTESIAN_POINT('',(1000.,73.606093011121,59.));
#545=CARTESIAN_POINT('',(1000.,73.606093011121,59.));
#546=CARTESIAN_POINT('',(0.,73.606093011121,59.));
#547=CARTESIAN_POINT('',(0.,73.606093011121,59.));
#548=CARTESIAN_POINT('',(0.,73.606093011121,59.));
#549=CARTESIAN_POINT('Origin',(0.,73.6060930113207,53.9999999999993));
#550=CARTESIAN_POINT('',(1000.,78.6,54.246765047011));
#551=CARTESIAN_POINT('Origin',(1000.,73.6060930113207,53.9999999999993));
#552=CARTESIAN_POINT('',(0.,78.6,54.246765047011));
#553=CARTESIAN_POINT('',(0.,78.6,54.246765047011));
#554=CARTESIAN_POINT('Origin',(0.,73.6060930113207,53.9999999999993));
#555=CARTESIAN_POINT('Origin',(0.,78.6,54.246765047011));
#556=CARTESIAN_POINT('',(1000.,78.6,1.5532349529937));
#557=CARTESIAN_POINT('',(1000.,78.6,1.5532349529937));
#558=CARTESIAN_POINT('',(0.,78.6,1.5532349529937));
#559=CARTESIAN_POINT('',(0.,78.6,1.5532349529937));
#560=CARTESIAN_POINT('',(0.,78.6,1.5532349529937));
#561=CARTESIAN_POINT('Origin',(0.,73.6060930113581,1.79999999999315));
#562=CARTESIAN_POINT('',(1000.,78.270854527197,0.));
#563=CARTESIAN_POINT('Origin',(1000.,73.6060930113581,1.79999999999315));
#564=CARTESIAN_POINT('',(0.,78.270854527197,0.));
#565=CARTESIAN_POINT('',(0.,78.270854527197,0.));
#566=CARTESIAN_POINT('Origin',(0.,73.6060930113581,1.79999999999315));
#567=CARTESIAN_POINT('Origin',(0.,0.0060930113212407,0.));
#568=CARTESIAN_POINT('',(1000.,-78.264761515876,2.274E-13));
#569=CARTESIAN_POINT('',(1000.,-78.264761515876,2.274E-13));
#570=CARTESIAN_POINT('',(0.,-78.264761515876,2.274E-13));
#571=CARTESIAN_POINT('',(0.,-78.264761515876,2.274E-13));
#572=CARTESIAN_POINT('',(0.,-78.264761515876,2.274E-13));
#573=CARTESIAN_POINT('Origin',(0.,-73.6000000000261,1.79999999999596));
#574=CARTESIAN_POINT('',(1000.,-78.6,1.8000000000003));
#575=CARTESIAN_POINT('Origin',(1000.,-73.6000000000261,1.79999999999596));
#576=CARTESIAN_POINT('',(0.,-78.6,1.8000000000003));
#577=CARTESIAN_POINT('',(0.,-78.6,1.8000000000003));
#578=CARTESIAN_POINT('Origin',(0.,-73.6000000000261,1.79999999999596));
#579=CARTESIAN_POINT('Origin',(0.,-78.6,1.8000000000003));
#580=CARTESIAN_POINT('',(1000.,-78.6,54.));
#581=CARTESIAN_POINT('',(1000.,-78.6,54.));
#582=CARTESIAN_POINT('',(0.,-78.6,54.));
#583=CARTESIAN_POINT('',(0.,-78.6,54.));
#584=CARTESIAN_POINT('',(0.,-78.6,54.));
#585=CARTESIAN_POINT('Origin',(0.,-73.6000000000009,54.0000000000009));
#586=CARTESIAN_POINT('Origin',(1000.,-73.6000000000009,54.0000000000009));
#587=CARTESIAN_POINT('Origin',(0.,-73.6000000000009,54.0000000000009));
#588=CARTESIAN_POINT('Origin',(0.,0.00251475871994256,20.5155934051197));
#589=CARTESIAN_POINT('Origin',(1000.,0.002514758719942,20.5155934051197));
#590=UNCERTAINTY_MEASURE_WITH_UNIT(LENGTH_MEASURE(0.01),#594,
'DISTANCE_ACCURACY_VALUE',
'Maximum model space distance between geometric entities at asserted c
onnectivities');
#591=UNCERTAINTY_MEASURE_WITH_UNIT(LENGTH_MEASURE(0.01),#594,
'DISTANCE_ACCURACY_VALUE',
'Maximum model space distance between geometric entities at asserted c
onnectivities');
#592=(
GEOMETRIC_REPRESENTATION_CONTEXT(3)
GLOBAL_UNCERTAINTY_ASSIGNED_CONTEXT((#590))
GLOBAL_UNIT_ASSIGNED_CONTEXT((#594,#596,#597))
REPRESENTATION_CONTEXT('','3D')
);
#593=(
GEOMETRIC_REPRESENTATION_CONTEXT(3)
GLOBAL_UNCERTAINTY_ASSIGNED_CONTEXT((#591))
GLOBAL_UNIT_ASSIGNED_CONTEXT((#594,#596,#597))
REPRESENTATION_CONTEXT('','3D')
);
#594=(
LENGTH_UNIT()
NAMED_UNIT(*)
SI_UNIT(.MILLI.,.METRE.)
);
#595=(
LENGTH_UNIT()
NAMED_UNIT(*)
SI_UNIT(.CENTI.,.METRE.)
);
#596=(
NAMED_UNIT(*)
PLANE_ANGLE_UNIT()
SI_UNIT($,.RADIAN.)
);
#597=(
NAMED_UNIT(*)
SI_UNIT($,.STERADIAN.)
SOLID_ANGLE_UNIT()
);
#598=SHAPE_DEFINITION_REPRESENTATION(#599,#600);
#599=PRODUCT_DEFINITION_SHAPE('',$,#602);
#600=SHAPE_REPRESENTATION('',(#370),#592);
#601=DESIGN_CONTEXT('part definition',#606,'design');
#602=PRODUCT_DEFINITION('UP 110.0760','UP 110.0760',#603,#601);
#603=PRODUCT_DEFINITION_FORMATION('',$,#608);
#604=PRODUCT_RELATED_PRODUCT_CATEGORY('UP 110.0760','UP 110.0760',(#608));
#605=APPLICATION_PROTOCOL_DEFINITION('international standard',
'ap203_configuration_controlled_3d_design_of_mechanical_parts_and_asse
mblies_mim_lf',2004,#606);
#606=APPLICATION_CONTEXT(
'Configuration Controlled 3D Design of Mechanical Parts and Assemblies');
#607=MECHANICAL_CONTEXT('part definition',#606,'mechanical');
#608=PRODUCT('UP 110.0760','UP 110.0760',
'U-Pr\X\E4zisions-F\X\FChrungsprofil',(#607));
#609=PRESENTATION_STYLE_ASSIGNMENT((#610));
#610=SURFACE_STYLE_USAGE(.BOTH.,#613);
#611=SURFACE_STYLE_RENDERING_WITH_PROPERTIES($,#617,(#612));
#612=SURFACE_STYLE_TRANSPARENT(0.);
#613=SURFACE_SIDE_STYLE('',(#614,#611));
#614=SURFACE_STYLE_FILL_AREA(#615);
#615=FILL_AREA_STYLE('',(#616));
#616=FILL_AREA_STYLE_COLOUR('',#617);
#617=COLOUR_RGB('',0.87843137254902,0.874509803921569,0.858823529411765);
ENDSEC;
END-ISO-10303-21;
