ISO-10303-21;
HEADER;
/* Generated by software containing ST-Developer
 * from STEP Tools, Inc. (www.steptools.com) 
 */

FILE_DESCRIPTION(
/* description */ ('U-F\X\FChrungsprofil'),
/* implementation_level */ '2;1');

FILE_NAME(
/* name */ 
'C:\\VAULT_WORKSPACE\\Projekte\\Werksnorm\\Profile\\UP xxx.0730\\UP180
-0730.stp',
/* time_stamp */ '2021-02-08T14:41:30+01:00',
/* author */ ('kstaebler'),
/* organization */ (''),
/* preprocessor_version */ 'ST-DEVELOPER v18.1',
/* originating_system */ 'Autodesk Inventor 2020',
/* authorisation */ '');

FILE_SCHEMA (('AUTOMOTIVE_DESIGN { 1 0 10303 214 3 1 1 }'));
ENDSEC;

DATA;
#10=MECHANICAL_DESIGN_GEOMETRIC_PRESENTATION_REPRESENTATION('',(#13),#461);
#11=SHAPE_REPRESENTATION_RELATIONSHIP('SRR','None',#468,#12);
#12=ADVANCED_BREP_SHAPE_REPRESENTATION('',(#14),#460);
#13=STYLED_ITEM('',(#477),#14);
#14=MANIFOLD_SOLID_BREP('Volumenk\X\F6rper1',#267);
#15=PLANE('',#290);
#16=PLANE('',#291);
#17=PLANE('',#297);
#18=PLANE('',#300);
#19=PLANE('',#303);
#20=PLANE('',#304);
#21=PLANE('',#305);
#22=PLANE('',#306);
#23=PLANE('',#307);
#24=PLANE('',#308);
#25=FACE_OUTER_BOUND('',#39,.T.);
#26=FACE_OUTER_BOUND('',#40,.T.);
#27=FACE_OUTER_BOUND('',#41,.T.);
#28=FACE_OUTER_BOUND('',#42,.T.);
#29=FACE_OUTER_BOUND('',#43,.T.);
#30=FACE_OUTER_BOUND('',#44,.T.);
#31=FACE_OUTER_BOUND('',#45,.T.);
#32=FACE_OUTER_BOUND('',#46,.T.);
#33=FACE_OUTER_BOUND('',#47,.T.);
#34=FACE_OUTER_BOUND('',#48,.T.);
#35=FACE_OUTER_BOUND('',#49,.T.);
#36=FACE_OUTER_BOUND('',#50,.T.);
#37=FACE_OUTER_BOUND('',#51,.T.);
#38=FACE_OUTER_BOUND('',#52,.T.);
#39=EDGE_LOOP('',(#177,#178,#179,#180));
#40=EDGE_LOOP('',(#181,#182,#183,#184));
#41=EDGE_LOOP('',(#185,#186,#187,#188,#189,#190,#191,#192,#193,#194,#195,
#196));
#42=EDGE_LOOP('',(#197,#198,#199,#200));
#43=EDGE_LOOP('',(#201,#202,#203,#204));
#44=EDGE_LOOP('',(#205,#206,#207,#208));
#45=EDGE_LOOP('',(#209,#210,#211,#212));
#46=EDGE_LOOP('',(#213,#214,#215,#216));
#47=EDGE_LOOP('',(#217,#218,#219,#220));
#48=EDGE_LOOP('',(#221,#222,#223,#224));
#49=EDGE_LOOP('',(#225,#226,#227,#228));
#50=EDGE_LOOP('',(#229,#230,#231,#232));
#51=EDGE_LOOP('',(#233,#234,#235,#236));
#52=EDGE_LOOP('',(#237,#238,#239,#240,#241,#242,#243,#244,#245,#246,#247,
#248));
#53=LINE('',#389,#81);
#54=LINE('',#392,#82);
#55=LINE('',#395,#83);
#56=LINE('',#397,#84);
#57=LINE('',#398,#85);
#58=LINE('',#401,#86);
#59=LINE('',#405,#87);
#60=LINE('',#407,#88);
#61=LINE('',#409,#89);
#62=LINE('',#413,#90);
#63=LINE('',#417,#91);
#64=LINE('',#418,#92);
#65=LINE('',#421,#93);
#66=LINE('',#424,#94);
#67=LINE('',#427,#95);
#68=LINE('',#428,#96);
#69=LINE('',#433,#97);
#70=LINE('',#434,#98);
#71=LINE('',#437,#99);
#72=LINE('',#438,#100);
#73=LINE('',#443,#101);
#74=LINE('',#444,#102);
#75=LINE('',#446,#103);
#76=LINE('',#448,#104);
#77=LINE('',#450,#105);
#78=LINE('',#453,#106);
#79=LINE('',#454,#107);
#80=LINE('',#456,#108);
#81=VECTOR('',#315,10.);
#82=VECTOR('',#318,10.);
#83=VECTOR('',#321,10.);
#84=VECTOR('',#322,10.);
#85=VECTOR('',#323,10.);
#86=VECTOR('',#326,10.);
#87=VECTOR('',#329,10.);
#88=VECTOR('',#330,10.);
#89=VECTOR('',#331,10.);
#90=VECTOR('',#334,10.);
#91=VECTOR('',#337,10.);
#92=VECTOR('',#338,10.);
#93=VECTOR('',#341,10.);
#94=VECTOR('',#344,10.);
#95=VECTOR('',#347,10.);
#96=VECTOR('',#348,10.);
#97=VECTOR('',#353,10.);
#98=VECTOR('',#354,10.);
#99=VECTOR('',#357,10.);
#100=VECTOR('',#358,10.);
#101=VECTOR('',#363,10.);
#102=VECTOR('',#364,10.);
#103=VECTOR('',#367,10.);
#104=VECTOR('',#370,10.);
#105=VECTOR('',#373,10.);
#106=VECTOR('',#376,10.);
#107=VECTOR('',#377,10.);
#108=VECTOR('',#380,10.);
#109=CIRCLE('',#288,20.);
#110=CIRCLE('',#289,20.);
#111=CIRCLE('',#292,20.);
#112=CIRCLE('',#293,10.);
#113=CIRCLE('',#294,10.);
#114=CIRCLE('',#296,20.);
#115=CIRCLE('',#299,10.);
#116=CIRCLE('',#302,10.);
#117=VERTEX_POINT('',#385);
#118=VERTEX_POINT('',#386);
#119=VERTEX_POINT('',#388);
#120=VERTEX_POINT('',#390);
#121=VERTEX_POINT('',#394);
#122=VERTEX_POINT('',#396);
#123=VERTEX_POINT('',#400);
#124=VERTEX_POINT('',#402);
#125=VERTEX_POINT('',#404);
#126=VERTEX_POINT('',#406);
#127=VERTEX_POINT('',#408);
#128=VERTEX_POINT('',#410);
#129=VERTEX_POINT('',#412);
#130=VERTEX_POINT('',#414);
#131=VERTEX_POINT('',#416);
#132=VERTEX_POINT('',#420);
#133=VERTEX_POINT('',#422);
#134=VERTEX_POINT('',#426);
#135=VERTEX_POINT('',#430);
#136=VERTEX_POINT('',#431);
#137=VERTEX_POINT('',#436);
#138=VERTEX_POINT('',#440);
#139=VERTEX_POINT('',#441);
#140=VERTEX_POINT('',#452);
#141=EDGE_CURVE('',#117,#118,#109,.T.);
#142=EDGE_CURVE('',#118,#119,#53,.T.);
#143=EDGE_CURVE('',#119,#120,#110,.T.);
#144=EDGE_CURVE('',#120,#117,#54,.T.);
#145=EDGE_CURVE('',#118,#121,#55,.T.);
#146=EDGE_CURVE('',#122,#121,#56,.T.);
#147=EDGE_CURVE('',#119,#122,#57,.T.);
#148=EDGE_CURVE('',#123,#117,#58,.T.);
#149=EDGE_CURVE('',#124,#123,#111,.T.);
#150=EDGE_CURVE('',#125,#124,#59,.T.);
#151=EDGE_CURVE('',#126,#125,#60,.T.);
#152=EDGE_CURVE('',#127,#126,#61,.T.);
#153=EDGE_CURVE('',#128,#127,#112,.T.);
#154=EDGE_CURVE('',#129,#128,#62,.T.);
#155=EDGE_CURVE('',#130,#129,#113,.T.);
#156=EDGE_CURVE('',#131,#130,#63,.T.);
#157=EDGE_CURVE('',#121,#131,#64,.T.);
#158=EDGE_CURVE('',#123,#132,#65,.T.);
#159=EDGE_CURVE('',#132,#133,#114,.T.);
#160=EDGE_CURVE('',#133,#124,#66,.T.);
#161=EDGE_CURVE('',#134,#133,#67,.T.);
#162=EDGE_CURVE('',#134,#125,#68,.T.);
#163=EDGE_CURVE('',#135,#136,#115,.T.);
#164=EDGE_CURVE('',#136,#130,#69,.T.);
#165=EDGE_CURVE('',#129,#135,#70,.T.);
#166=EDGE_CURVE('',#137,#136,#71,.T.);
#167=EDGE_CURVE('',#137,#131,#72,.T.);
#168=EDGE_CURVE('',#138,#139,#116,.T.);
#169=EDGE_CURVE('',#139,#128,#73,.T.);
#170=EDGE_CURVE('',#127,#138,#74,.T.);
#171=EDGE_CURVE('',#135,#139,#75,.T.);
#172=EDGE_CURVE('',#132,#120,#76,.T.);
#173=EDGE_CURVE('',#122,#137,#77,.T.);
#174=EDGE_CURVE('',#140,#126,#78,.T.);
#175=EDGE_CURVE('',#138,#140,#79,.T.);
#176=EDGE_CURVE('',#140,#134,#80,.T.);
#177=ORIENTED_EDGE('',*,*,#141,.T.);
#178=ORIENTED_EDGE('',*,*,#142,.T.);
#179=ORIENTED_EDGE('',*,*,#143,.T.);
#180=ORIENTED_EDGE('',*,*,#144,.T.);
#181=ORIENTED_EDGE('',*,*,#142,.F.);
#182=ORIENTED_EDGE('',*,*,#145,.T.);
#183=ORIENTED_EDGE('',*,*,#146,.F.);
#184=ORIENTED_EDGE('',*,*,#147,.F.);
#185=ORIENTED_EDGE('',*,*,#141,.F.);
#186=ORIENTED_EDGE('',*,*,#148,.F.);
#187=ORIENTED_EDGE('',*,*,#149,.F.);
#188=ORIENTED_EDGE('',*,*,#150,.F.);
#189=ORIENTED_EDGE('',*,*,#151,.F.);
#190=ORIENTED_EDGE('',*,*,#152,.F.);
#191=ORIENTED_EDGE('',*,*,#153,.F.);
#192=ORIENTED_EDGE('',*,*,#154,.F.);
#193=ORIENTED_EDGE('',*,*,#155,.F.);
#194=ORIENTED_EDGE('',*,*,#156,.F.);
#195=ORIENTED_EDGE('',*,*,#157,.F.);
#196=ORIENTED_EDGE('',*,*,#145,.F.);
#197=ORIENTED_EDGE('',*,*,#149,.T.);
#198=ORIENTED_EDGE('',*,*,#158,.T.);
#199=ORIENTED_EDGE('',*,*,#159,.T.);
#200=ORIENTED_EDGE('',*,*,#160,.T.);
#201=ORIENTED_EDGE('',*,*,#160,.F.);
#202=ORIENTED_EDGE('',*,*,#161,.F.);
#203=ORIENTED_EDGE('',*,*,#162,.T.);
#204=ORIENTED_EDGE('',*,*,#150,.T.);
#205=ORIENTED_EDGE('',*,*,#163,.T.);
#206=ORIENTED_EDGE('',*,*,#164,.T.);
#207=ORIENTED_EDGE('',*,*,#155,.T.);
#208=ORIENTED_EDGE('',*,*,#165,.T.);
#209=ORIENTED_EDGE('',*,*,#164,.F.);
#210=ORIENTED_EDGE('',*,*,#166,.F.);
#211=ORIENTED_EDGE('',*,*,#167,.T.);
#212=ORIENTED_EDGE('',*,*,#156,.T.);
#213=ORIENTED_EDGE('',*,*,#168,.T.);
#214=ORIENTED_EDGE('',*,*,#169,.T.);
#215=ORIENTED_EDGE('',*,*,#153,.T.);
#216=ORIENTED_EDGE('',*,*,#170,.T.);
#217=ORIENTED_EDGE('',*,*,#165,.F.);
#218=ORIENTED_EDGE('',*,*,#154,.T.);
#219=ORIENTED_EDGE('',*,*,#169,.F.);
#220=ORIENTED_EDGE('',*,*,#171,.F.);
#221=ORIENTED_EDGE('',*,*,#144,.F.);
#222=ORIENTED_EDGE('',*,*,#172,.F.);
#223=ORIENTED_EDGE('',*,*,#158,.F.);
#224=ORIENTED_EDGE('',*,*,#148,.T.);
#225=ORIENTED_EDGE('',*,*,#157,.T.);
#226=ORIENTED_EDGE('',*,*,#167,.F.);
#227=ORIENTED_EDGE('',*,*,#173,.F.);
#228=ORIENTED_EDGE('',*,*,#146,.T.);
#229=ORIENTED_EDGE('',*,*,#170,.F.);
#230=ORIENTED_EDGE('',*,*,#152,.T.);
#231=ORIENTED_EDGE('',*,*,#174,.F.);
#232=ORIENTED_EDGE('',*,*,#175,.F.);
#233=ORIENTED_EDGE('',*,*,#151,.T.);
#234=ORIENTED_EDGE('',*,*,#162,.F.);
#235=ORIENTED_EDGE('',*,*,#176,.F.);
#236=ORIENTED_EDGE('',*,*,#174,.T.);
#237=ORIENTED_EDGE('',*,*,#143,.F.);
#238=ORIENTED_EDGE('',*,*,#147,.T.);
#239=ORIENTED_EDGE('',*,*,#173,.T.);
#240=ORIENTED_EDGE('',*,*,#166,.T.);
#241=ORIENTED_EDGE('',*,*,#163,.F.);
#242=ORIENTED_EDGE('',*,*,#171,.T.);
#243=ORIENTED_EDGE('',*,*,#168,.F.);
#244=ORIENTED_EDGE('',*,*,#175,.T.);
#245=ORIENTED_EDGE('',*,*,#176,.T.);
#246=ORIENTED_EDGE('',*,*,#161,.T.);
#247=ORIENTED_EDGE('',*,*,#159,.F.);
#248=ORIENTED_EDGE('',*,*,#172,.T.);
#249=CYLINDRICAL_SURFACE('',#287,20.);
#250=CYLINDRICAL_SURFACE('',#295,20.);
#251=CYLINDRICAL_SURFACE('',#298,10.);
#252=CYLINDRICAL_SURFACE('',#301,10.);
#253=ADVANCED_FACE('',(#25),#249,.T.);
#254=ADVANCED_FACE('',(#26),#15,.T.);
#255=ADVANCED_FACE('',(#27),#16,.T.);
#256=ADVANCED_FACE('',(#28),#250,.T.);
#257=ADVANCED_FACE('',(#29),#17,.T.);
#258=ADVANCED_FACE('',(#30),#251,.F.);
#259=ADVANCED_FACE('',(#31),#18,.T.);
#260=ADVANCED_FACE('',(#32),#252,.F.);
#261=ADVANCED_FACE('',(#33),#19,.T.);
#262=ADVANCED_FACE('',(#34),#20,.T.);
#263=ADVANCED_FACE('',(#35),#21,.T.);
#264=ADVANCED_FACE('',(#36),#22,.T.);
#265=ADVANCED_FACE('',(#37),#23,.T.);
#266=ADVANCED_FACE('',(#38),#24,.F.);
#267=CLOSED_SHELL('',(#253,#254,#255,#256,#257,#258,#259,#260,#261,#262,
#263,#264,#265,#266));
#268=DERIVED_UNIT_ELEMENT(#270,1.);
#269=DERIVED_UNIT_ELEMENT(#463,3.);
#270=(
MASS_UNIT()
NAMED_UNIT(*)
SI_UNIT($,.GRAM.)
);
#271=DERIVED_UNIT((#268,#269));
#272=MEASURE_REPRESENTATION_ITEM('density measure',
POSITIVE_RATIO_MEASURE(7.86),#271);
#273=PROPERTY_DEFINITION_REPRESENTATION(#278,#275);
#274=PROPERTY_DEFINITION_REPRESENTATION(#279,#276);
#275=REPRESENTATION('material name',(#277),#460);
#276=REPRESENTATION('density',(#272),#460);
#277=DESCRIPTIVE_REPRESENTATION_ITEM('S235JR','S235JR');
#278=PROPERTY_DEFINITION('material property','material name',#470);
#279=PROPERTY_DEFINITION('material property','density of part',#470);
#280=DATE_TIME_ROLE('creation_date');
#281=APPLIED_DATE_AND_TIME_ASSIGNMENT(#282,#280,(#470));
#282=DATE_AND_TIME(#283,#284);
#283=CALENDAR_DATE(2010,15,10);
#284=LOCAL_TIME(6,34,28.,#285);
#285=COORDINATED_UNIVERSAL_TIME_OFFSET(0,0,.BEHIND.);
#286=AXIS2_PLACEMENT_3D('placement',#383,#309,#310);
#287=AXIS2_PLACEMENT_3D('',#384,#311,#312);
#288=AXIS2_PLACEMENT_3D('',#387,#313,#314);
#289=AXIS2_PLACEMENT_3D('',#391,#316,#317);
#290=AXIS2_PLACEMENT_3D('',#393,#319,#320);
#291=AXIS2_PLACEMENT_3D('',#399,#324,#325);
#292=AXIS2_PLACEMENT_3D('',#403,#327,#328);
#293=AXIS2_PLACEMENT_3D('',#411,#332,#333);
#294=AXIS2_PLACEMENT_3D('',#415,#335,#336);
#295=AXIS2_PLACEMENT_3D('',#419,#339,#340);
#296=AXIS2_PLACEMENT_3D('',#423,#342,#343);
#297=AXIS2_PLACEMENT_3D('',#425,#345,#346);
#298=AXIS2_PLACEMENT_3D('',#429,#349,#350);
#299=AXIS2_PLACEMENT_3D('',#432,#351,#352);
#300=AXIS2_PLACEMENT_3D('',#435,#355,#356);
#301=AXIS2_PLACEMENT_3D('',#439,#359,#360);
#302=AXIS2_PLACEMENT_3D('',#442,#361,#362);
#303=AXIS2_PLACEMENT_3D('',#445,#365,#366);
#304=AXIS2_PLACEMENT_3D('',#447,#368,#369);
#305=AXIS2_PLACEMENT_3D('',#449,#371,#372);
#306=AXIS2_PLACEMENT_3D('',#451,#374,#375);
#307=AXIS2_PLACEMENT_3D('',#455,#378,#379);
#308=AXIS2_PLACEMENT_3D('',#457,#381,#382);
#309=DIRECTION('axis',(0.,0.,1.));
#310=DIRECTION('refdir',(1.,0.,0.));
#311=DIRECTION('center_axis',(0.,0.,1.));
#312=DIRECTION('ref_axis',(0.707106781186547,0.707106781186547,0.));
#313=DIRECTION('center_axis',(0.,0.,-1.));
#314=DIRECTION('ref_axis',(0.707106781186547,0.707106781186547,0.));
#315=DIRECTION('',(0.,0.,-1.));
#316=DIRECTION('center_axis',(0.,0.,1.));
#317=DIRECTION('ref_axis',(0.707106781186547,0.707106781186547,0.));
#318=DIRECTION('',(0.,0.,1.));
#319=DIRECTION('center_axis',(1.,0.,0.));
#320=DIRECTION('ref_axis',(0.,0.,-1.));
#321=DIRECTION('',(0.,-1.,0.));
#322=DIRECTION('',(0.,0.,1.));
#323=DIRECTION('',(0.,-1.,0.));
#324=DIRECTION('center_axis',(0.,0.,1.));
#325=DIRECTION('ref_axis',(1.,0.,0.));
#326=DIRECTION('',(1.,0.,0.));
#327=DIRECTION('center_axis',(0.,0.,-1.));
#328=DIRECTION('ref_axis',(-0.707106781186548,0.707106781186547,0.));
#329=DIRECTION('',(0.,1.,0.));
#330=DIRECTION('',(-1.,-8.88178419700125E-16,0.));
#331=DIRECTION('',(2.96059473233375E-16,-1.,0.));
#332=DIRECTION('center_axis',(0.,0.,1.));
#333=DIRECTION('ref_axis',(-0.707106781186548,0.707106781186547,0.));
#334=DIRECTION('',(-1.,0.,0.));
#335=DIRECTION('center_axis',(0.,0.,1.));
#336=DIRECTION('ref_axis',(0.707106781186547,0.707106781186548,0.));
#337=DIRECTION('',(0.,1.,0.));
#338=DIRECTION('',(-0.999999999999962,2.74660709287378E-7,0.));
#339=DIRECTION('center_axis',(0.,0.,1.));
#340=DIRECTION('ref_axis',(-0.707106781186548,0.707106781186547,0.));
#341=DIRECTION('',(0.,0.,-1.));
#342=DIRECTION('center_axis',(0.,0.,1.));
#343=DIRECTION('ref_axis',(-0.707106781186548,0.707106781186547,0.));
#344=DIRECTION('',(0.,0.,1.));
#345=DIRECTION('center_axis',(-1.,0.,0.));
#346=DIRECTION('ref_axis',(0.,0.,1.));
#347=DIRECTION('',(0.,1.,0.));
#348=DIRECTION('',(0.,0.,1.));
#349=DIRECTION('center_axis',(0.,0.,1.));
#350=DIRECTION('ref_axis',(0.707106781186547,0.707106781186548,0.));
#351=DIRECTION('center_axis',(0.,0.,-1.));
#352=DIRECTION('ref_axis',(0.707106781186547,0.707106781186548,0.));
#353=DIRECTION('',(0.,0.,1.));
#354=DIRECTION('',(0.,0.,-1.));
#355=DIRECTION('center_axis',(-1.,0.,0.));
#356=DIRECTION('ref_axis',(0.,0.,1.));
#357=DIRECTION('',(0.,1.,0.));
#358=DIRECTION('',(0.,0.,1.));
#359=DIRECTION('center_axis',(0.,0.,1.));
#360=DIRECTION('ref_axis',(-0.707106781186548,0.707106781186547,0.));
#361=DIRECTION('center_axis',(0.,0.,-1.));
#362=DIRECTION('ref_axis',(-0.707106781186548,0.707106781186547,0.));
#363=DIRECTION('',(0.,0.,1.));
#364=DIRECTION('',(0.,0.,-1.));
#365=DIRECTION('center_axis',(0.,-1.,0.));
#366=DIRECTION('ref_axis',(0.,0.,-1.));
#367=DIRECTION('',(-1.,0.,0.));
#368=DIRECTION('center_axis',(0.,1.,0.));
#369=DIRECTION('ref_axis',(0.,0.,1.));
#370=DIRECTION('',(1.,0.,0.));
#371=DIRECTION('center_axis',(-2.74660709287378E-7,-0.999999999999962,0.));
#372=DIRECTION('ref_axis',(0.,0.,-1.));
#373=DIRECTION('',(-0.999999999999962,2.74660709287378E-7,0.));
#374=DIRECTION('center_axis',(1.,2.96059473233375E-16,0.));
#375=DIRECTION('ref_axis',(0.,0.,-1.));
#376=DIRECTION('',(0.,0.,1.));
#377=DIRECTION('',(2.96059473233375E-16,-1.,0.));
#378=DIRECTION('center_axis',(8.88178419700125E-16,-1.,0.));
#379=DIRECTION('ref_axis',(0.,0.,-1.));
#380=DIRECTION('',(-1.,-8.88178419700125E-16,0.));
#381=DIRECTION('center_axis',(0.,0.,1.));
#382=DIRECTION('ref_axis',(1.,0.,0.));
#383=CARTESIAN_POINT('',(0.,0.,0.));
#384=CARTESIAN_POINT('Origin',(80.,-20.,0.));
#385=CARTESIAN_POINT('',(80.,0.,1000.));
#386=CARTESIAN_POINT('',(100.,-20.,1000.));
#387=CARTESIAN_POINT('Origin',(80.,-20.,1000.));
#388=CARTESIAN_POINT('',(100.,-20.,0.));
#389=CARTESIAN_POINT('',(100.,-20.,0.));
#390=CARTESIAN_POINT('',(80.,0.,0.));
#391=CARTESIAN_POINT('Origin',(80.,-20.,0.));
#392=CARTESIAN_POINT('',(80.,0.,0.));
#393=CARTESIAN_POINT('Origin',(100.,0.,0.));
#394=CARTESIAN_POINT('',(100.,-70.0000027466071,1000.));
#395=CARTESIAN_POINT('',(100.,0.,1000.));
#396=CARTESIAN_POINT('',(100.,-70.0000027466071,0.));
#397=CARTESIAN_POINT('',(100.,-70.0000027466071,0.));
#398=CARTESIAN_POINT('',(100.,0.,0.));
#399=CARTESIAN_POINT('Origin',(4.16152647897405E-7,-19.5454547762301,1000.));
#400=CARTESIAN_POINT('',(-80.,0.,1000.));
#401=CARTESIAN_POINT('',(-100.,0.,1000.));
#402=CARTESIAN_POINT('',(-100.,-20.,1000.));
#403=CARTESIAN_POINT('Origin',(-80.,-20.,1000.));
#404=CARTESIAN_POINT('',(-100.,-70.,1000.));
#405=CARTESIAN_POINT('',(-100.,-70.,1000.));
#406=CARTESIAN_POINT('',(-90.,-70.,1000.));
#407=CARTESIAN_POINT('',(-90.,-70.,1000.));
#408=CARTESIAN_POINT('',(-90.,-20.,1000.));
#409=CARTESIAN_POINT('',(-90.,-10.,1000.));
#410=CARTESIAN_POINT('',(-80.,-10.,1000.));
#411=CARTESIAN_POINT('Origin',(-80.,-20.,1000.));
#412=CARTESIAN_POINT('',(80.,-10.,1000.));
#413=CARTESIAN_POINT('',(90.,-10.,1000.));
#414=CARTESIAN_POINT('',(90.,-20.,1000.));
#415=CARTESIAN_POINT('Origin',(80.,-20.,1000.));
#416=CARTESIAN_POINT('',(90.,-70.,1000.));
#417=CARTESIAN_POINT('',(90.,-70.,1000.));
#418=CARTESIAN_POINT('',(100.,-70.0000027466071,1000.));
#419=CARTESIAN_POINT('Origin',(-80.,-20.,0.));
#420=CARTESIAN_POINT('',(-80.,0.,0.));
#421=CARTESIAN_POINT('',(-80.,0.,0.));
#422=CARTESIAN_POINT('',(-100.,-20.,0.));
#423=CARTESIAN_POINT('Origin',(-80.,-20.,0.));
#424=CARTESIAN_POINT('',(-100.,-20.,0.));
#425=CARTESIAN_POINT('Origin',(-100.,-70.,0.));
#426=CARTESIAN_POINT('',(-100.,-70.,0.));
#427=CARTESIAN_POINT('',(-100.,-70.,0.));
#428=CARTESIAN_POINT('',(-100.,-70.,0.));
#429=CARTESIAN_POINT('Origin',(80.,-20.,0.));
#430=CARTESIAN_POINT('',(80.,-10.,0.));
#431=CARTESIAN_POINT('',(90.,-20.,0.));
#432=CARTESIAN_POINT('Origin',(80.,-20.,0.));
#433=CARTESIAN_POINT('',(90.,-20.,0.));
#434=CARTESIAN_POINT('',(80.,-10.,0.));
#435=CARTESIAN_POINT('Origin',(90.,-70.,0.));
#436=CARTESIAN_POINT('',(90.,-70.,0.));
#437=CARTESIAN_POINT('',(90.,-70.,0.));
#438=CARTESIAN_POINT('',(90.,-70.,0.));
#439=CARTESIAN_POINT('Origin',(-80.,-20.,0.));
#440=CARTESIAN_POINT('',(-90.,-20.,0.));
#441=CARTESIAN_POINT('',(-80.,-10.,0.));
#442=CARTESIAN_POINT('Origin',(-80.,-20.,0.));
#443=CARTESIAN_POINT('',(-80.,-10.,0.));
#444=CARTESIAN_POINT('',(-90.,-20.,0.));
#445=CARTESIAN_POINT('Origin',(90.,-10.,0.));
#446=CARTESIAN_POINT('',(90.,-10.,0.));
#447=CARTESIAN_POINT('Origin',(-100.,0.,0.));
#448=CARTESIAN_POINT('',(-100.,0.,0.));
#449=CARTESIAN_POINT('Origin',(100.,-70.0000027466071,0.));
#450=CARTESIAN_POINT('',(100.,-70.0000027466071,0.));
#451=CARTESIAN_POINT('Origin',(-90.,-10.,0.));
#452=CARTESIAN_POINT('',(-90.,-70.,0.));
#453=CARTESIAN_POINT('',(-90.,-70.,0.));
#454=CARTESIAN_POINT('',(-90.,-10.,0.));
#455=CARTESIAN_POINT('Origin',(-90.,-70.,0.));
#456=CARTESIAN_POINT('',(-90.,-70.,0.));
#457=CARTESIAN_POINT('Origin',(4.16152648730073E-7,-19.5454547762301,0.));
#458=UNCERTAINTY_MEASURE_WITH_UNIT(LENGTH_MEASURE(0.01),#462,
'DISTANCE_ACCURACY_VALUE',
'Maximum model space distance between geometric entities at asserted c
onnectivities');
#459=UNCERTAINTY_MEASURE_WITH_UNIT(LENGTH_MEASURE(0.01),#462,
'DISTANCE_ACCURACY_VALUE',
'Maximum model space distance between geometric entities at asserted c
onnectivities');
#460=(
GEOMETRIC_REPRESENTATION_CONTEXT(3)
GLOBAL_UNCERTAINTY_ASSIGNED_CONTEXT((#458))
GLOBAL_UNIT_ASSIGNED_CONTEXT((#462,#464,#465))
REPRESENTATION_CONTEXT('','3D')
);
#461=(
GEOMETRIC_REPRESENTATION_CONTEXT(3)
GLOBAL_UNCERTAINTY_ASSIGNED_CONTEXT((#459))
GLOBAL_UNIT_ASSIGNED_CONTEXT((#462,#464,#465))
REPRESENTATION_CONTEXT('','3D')
);
#462=(
LENGTH_UNIT()
NAMED_UNIT(*)
SI_UNIT(.MILLI.,.METRE.)
);
#463=(
LENGTH_UNIT()
NAMED_UNIT(*)
SI_UNIT(.CENTI.,.METRE.)
);
#464=(
NAMED_UNIT(*)
PLANE_ANGLE_UNIT()
SI_UNIT($,.RADIAN.)
);
#465=(
NAMED_UNIT(*)
SI_UNIT($,.STERADIAN.)
SOLID_ANGLE_UNIT()
);
#466=SHAPE_DEFINITION_REPRESENTATION(#467,#468);
#467=PRODUCT_DEFINITION_SHAPE('',$,#470);
#468=SHAPE_REPRESENTATION('',(#286),#460);
#469=PRODUCT_DEFINITION_CONTEXT('part definition',#474,'design');
#470=PRODUCT_DEFINITION('UP 180.0730','UP 180.0730',#471,#469);
#471=PRODUCT_DEFINITION_FORMATION('',$,#476);
#472=PRODUCT_RELATED_PRODUCT_CATEGORY('UP 180.0730','UP 180.0730',(#476));
#473=APPLICATION_PROTOCOL_DEFINITION('international standard',
'automotive_design',2009,#474);
#474=APPLICATION_CONTEXT(
'Core Data for Automotive Mechanical Design Process');
#475=PRODUCT_CONTEXT('part definition',#474,'mechanical');
#476=PRODUCT('UP 180.0730','UP 180.0730','U-F\X\FChrungsprofil',(#475));
#477=PRESENTATION_STYLE_ASSIGNMENT((#478));
#478=SURFACE_STYLE_USAGE(.BOTH.,#481);
#479=SURFACE_STYLE_RENDERING_WITH_PROPERTIES($,#485,(#480));
#480=SURFACE_STYLE_TRANSPARENT(0.);
#481=SURFACE_SIDE_STYLE('',(#482,#479));
#482=SURFACE_STYLE_FILL_AREA(#483);
#483=FILL_AREA_STYLE('',(#484));
#484=FILL_AREA_STYLE_COLOUR('',#485);
#485=COLOUR_RGB('',0.87843137254902,0.874509803921569,0.858823529411765);
ENDSEC;
END-ISO-10303-21;
